Joyce Manor Tabs

If I Needed You There

1 versions

TAB

            -----------------------------------------------------------------------------
                           If I Needed You There - Joyce Manor
-----------------------------------------------------------------------------

Intro:
e|--------------------------------|
B|-x---x---x---x---x--x-x-x-x-x-x-|
G|-x---x---x---x---x--x-x-x-x-x-x-|
D|-x---x---x---x---x--x-x-x-x-x-x-|
A|-x---x---x---x---x--x-x-x-x-x-x-|
E|--------------------------------|


Verse: x4
e|------------------------------------------------|
B|------------------------------------------------|
G|------------------------------------------------|
D|-7--7--7-7-10--10-101010-5--5--5-5-3--3--3-3-3--|
A|-7--7--7-7-10--10-101010-5--5--5-5-3--3--3-3-3--|
E|-5--5--5-5-8---8--8-8-8--3--3--3-3-1--1--1-1-1--|


Interlude: x2
e|------------------------------------------------|
B|------------------------------------------------|
G|------------------------------------------------|
D|-7-7-7-10----5-5---3-----7-7-7-10----5-5---3----|
A|-7-7-7-10----5-5---3-----7-7-7-10----5-5---3----|
E|-5-5-5-8-----3-3---1-----5-5-5-8-----3-3---1----|
 |
e|------------------------------------------------|
B|------------------------------------------------|
G|------------------------------------------------|
D|-------------5--3--2-----------------0--2-------|
A|---------3-5---------------------0-3-------3----|
E|------------------------------------------------|


Outro:
e|------------------------------------------|
B|------------------------------------------|
G|------------------------------------------|
D|-5-5-5-5-5-5-57--3--3-3-3-3-3-32--7-7-----|
A|-5-5-5-5-5-5-57--3--3-3-3-3-3-32--7-7-----|
E|-3-3-3-3-3-3-35--1--1-1-1-1-1-10--5-5-----|    

Added On December 16th, 2013

SHARE

Comments

blog comments powered by Disqus

ADVERTISEMENT