Harbour Tabs

Love Lost tab

1 versions

TAB

            x[Intro]
e|------------|---------------|--------------------------------|
B|-8--12--5---|---8--12--5----|--8--12--5--7------5------------|
G|------------|---------------|----------------------------4---|
D|------------|---------------|--------------------------------|
A|-7--10--3---|---7--10--3----|--7--12--3--5------3------------|
E|------------|---------------|----------------------------3---|

[Verse]
e|----------------------------------------|
B|---------0---0---0---0---0---0---0---0--|
G|---------0---0---0---0---0---0---0---0--|
D|-----------2-------2-------2-------2----| x2
A|-0h2h3-3-------3-------3-------3--------|
E|----------------------------------------|

e|--------------------------------------|
B|-----------0---0---0---0---0---0---0--|
G|-----------0---0---0---0---0---0---0--|
D|-------------4-------4-------4--------|x2
A|--------------------------------------|
E|-0h1h2h3-3-------3-------3-------3----|

[Chorus]
e|----------------------------------------|
B|---------0---0---0---0---0---0---0---0--|
G|---------0---0---0---0---0---0---0---0--|
D|-----------2-------2-------2-------2----| x2
A|-0h2h3-3-------3-------3-------3--------|
E|----------------------------------------|

e|--------------------------------------|
B|-----------0---0---0---0---0---0---0--|
G|-----------0---0---0---0---0---0---0--|
D|-------------4-------4-------4--------|x2
A|--------------------------------------|
E|-0h1h2h3-3-------3-------3-------3----|

[Verse]
e|----------------------------------------|
B|---------0---0---0---0---0---0---0---0--|
G|---------0---0---0---0---0---0---0---0--|
D|-----------2-------2-------2-------2----| x2
A|-0h2h3-3-------3-------3-------3--------|
E|----------------------------------------|

e|--------------------------------------|
B|-----------0---0---0---0---0---0---0--|
G|-----------0---0---0---0---0---0---0--|
D|-------------4-------4-------4--------|x2
A|--------------------------------------|
E|-0h1h2h3-3-------3-------3-------3----|



************************************

| h  Hammer-on

************************************    

Added On August 12th, 2017

SHARE

Comments

blog comments powered by Disqus

ADVERTISEMENT