Manic Street Preachers Tabs

The Everlasting

2 versions

TAB

            THE EVERLASTING
                      As recorded by Manic Street Preachers
              (From the 1998 Album THIS IS MY TRUTH TELL ME YOURS)

Words by Nick Jones

Music by James Dean Bradfield & Sean Moore


         Fadd9               Fadd9/E              Dmadd11                 C
     x 8 10 0 10 x        x 7 10 0 10 x         x 5 7 0 6 x          x 3 5 0 5 x

        Bbmaj7                 Gm                    F                   Am
      x 1 3 2 3 1        x 10 12 12 11 x        x 3 3 2 1 1          x 0 2 2 1 0

          Dm                   C#                  Copen                GmIII
      x x 0 2 3 1          x 4 6 6 6 x          x 3 2 0 1 0          3 5 5 3 3 3

          CII             GmIII(type 2)            CVIII                 AmV
      x 3 2 5 x x          x x 5 3 3 3         x x 10 9 8 8          x x 7 5 5 5

          F6                   A5                   Bb5                  C5
      x x 3 2 3 x          x 0 2 x x x          x 1 3 x x x          x 3 5 x x x

          D5                 C#5/Ab                 C#5                  DmX
      x x 0 2 3 x          4 4 6 x x x          x 4 6 x x x        x x 12 10 10 10

        Dmadd9
      x 5 7 7 6 0

Gtr I (E A D G B E) - 'Gtr.1 - James Dean Bradfield'
Gtr II (E A D G B E) - 'Gtr.2 (w/tremolo in 16ths) - James Dean Bradfield'
Gtr III (E A D G B E) - 'Gtr.3 - James Dean Bradfield (w/trem. for choruses, reverb for solo)'
Gtr IV (E A D G B E) - 'Organ - Nick Nasmyth'
Gtr V (E A D G B E) - 'Wurlitzer - Nick Nasmyth'

 Intro
  Moderately Q=96
  N.C.         Fadd9        Fadd9/E       Dmadd11    C
 4/4
  Gtr II
  W            H            H             H          H
               |            |             |          |
               o            o             o          o

  Gtr I
  Wx2          E  E  E S  S E  E  E S S   E E E S S  E E E S S
|------------|--------------------------|----------------------|
|------------|------10-----------10-----|-----6----------5-----|
|------------|---------0------------0---|-------0------0---0---|
|------------|---10------10---10------7-|---7-----7\---------3-|
|------------|-8------------7-----------|-5----------3---------|
|------------|--------------------------|----------------------|


  Bbmaj7                       Gm
  H.                   +Q        H.      +E E
  |                     |        |        | |
  o                     o        o        o /

  E  E S S S S +S  S E +Q        H.       Q
|----------------------------|-----------------||
|----------------------------|-^11-------------||
|------2p0---0-(0)-----------|-^12-------------||
|----3-----3-------3---------|-^12-------------||
|-1------------------1-(1)/--|-^10-------------||
|----------------------------|-----------------||


 Verse
  F                         Am
   W          +H.      Q     W          +H.      Q
|-^1--------|-(1)---------|-^0--------|-(0)---------|
|-^1--------|-(1)---------|-^1--------|-(1)---------|
|-^2--------|-(2)---------|-^2--------|-(2)---------|
|-^3--------|-(3)---------|-^2--------|-(2)---------|
|-^3--------|-(3)---------|-^0--------|-(0)---------|
|-----------|-------------|-----------|-------------|


  Dm                          Bbmaj7              C#
  Gtr II
   W           H     Q  E E   H.           +E E   H.           +E E
                          |   |             | |   |             | |
                          o   o             o /   o             o /

   W          +W              Q   E. S E E  E E   Q   E. S E E  E E
|-^1--------|-(1)-----------|-------------------|-------------------|
|-^3--------|-(3)-----------|-----3--3------3---|-----6--6------6-6-|
|-^2--------|-(2)-----------|-2---2--2-2-2--2-2-|-6---6--6-6-6--6-6-|
|-^0--------|-(0)-----------|-3---3--3-3-3--3-3-|-6---6--6-6-6--6-6-|
|-----------|---------------|-1---1----1-1--1-1-|-4---4--4-4-4--4-4-|
|-----------|---------------|-------------------|-------------------|


  Copen               Am
  H.           +E E    H.           +E E
  |             | |    |             | |
  o             / /    o             / /

  Q   E. S E E  E E    Q   E. S E E  E E
|-----0--0------0---|------0--0------0---|
|-----1--1------1---|------1--1-1----1---|
|-0---0--0-0-0--0-x-|--2---2--2-2-2--2-x-|
|-2---2--2-2-2--2-x-|--2---2--2-2-2--2-x-|
|-3---3----3-3--3-x-|--0---0------0--0-x-|
|-------------------|--------------------|
|
| Gtr IV
| W                    W
|-0-----------------|-(0)----------------|
|-1-----------------|-(1)----------------|
|-0-----------------|--2-----------------|
|-------------------|--------------------|
|-------------------|--------------------|
|-------------------|--------------------|


  Bbmaj7               Copen
   H.           +E E   H.           +E E
   |             | |   |             | |
   o             / /   o             / /

   Q   E. S E E  E E   Q   E. S E E  E E
|--------------------|-----0--0------0---|
|------3--3------3---|-1---1--1------1---|
|--2---2--2-2-2--2---|-0---0--0-0-0--0---|
|--3---3--3-3-3--3---|-2---2--2-2-2--2---|
|--1---1----1-1--1---|-3---3----3-3--3---|
|--------------------|-------------------|
|
|  W                   W
|--1-----------------|-3-----------------|
|--3-----------------|-1-----------------|
|-(2)----------------|-0-----------------|
|--------------------|-------------------|
|--------------------|-------------------|
|--------------------|-------------------|


  Dm                  GmIII                C#
  H.           +E E    H.           +E E   W
  |             | |    |             | |   |
  o             / /    o             / /   o

  Q   E. S E E  E E    Q   E. S e E  E E   Q  E. S E E E E
|-----1--1------1---|------3-------------|-----------------|
|-3---3--3-3-3--3-3-|------3--3------3---|----6--------6---|
|-2---2--2-2-2--2-2-|--3---3--3------3-3-|-6--6--6---6-6---|
|-0---0--0-0-0--0-0-|--5---5--5-5-5--5-5-|-6--6--6-6-6-6---|
|-------------------|--5--------5-5----5-|-4--4--4-4-4-4---|
|-------------------|--3--------3-3----3-|-----------------|
|
| W                    W                   W
|-1-----------------|--3-----------------|-1---------------|
|-3-----------------|-(3)----------------|-2---------------|
|-2-----------------|--3-----------------|-1---------------|
|-------------------|--------------------|-----------------|
|-------------------|--------------------|-----------------|
|-------------------|--------------------|-----------------|


  Copen             CII
  W                  H        +E E   Q
  |                  |         | |   |
  o                  /         / x   /

  E E E E E E E E    E  E E E  E S S S S S S
|-----------------|-------0------------------||
|-1---------------|--1--1-1-1--1-1-1-1-1-1-1-||
|-0-----0-0-0-0-0-|--0--0-0-0--0-0-0-0-0-0-0-||
|-2-2-2-2-2-2-2-2-|--2--2-2-2--2-2-2-2-2-2-2-||
|-3-3-3-3-3-3-3-3-|--3--3-3-3--3-3-3-3-3-3-3-||
|-----------------|--------------------------||
|
| W                 +W
|-0---------------|-(0)----------------------||
|-1---------------|-(1)----------------------||
|-0---------------|-(0)----------------------||
|-----------------|--------------------------||
|-----------------|--------------------------||
|-----------------|--------------------------||


 Chorus
  Dm                    GmIII(type 2)
  H.            E E      H.            +E E
  |             |        |              | |
  /             x        /              / x

  Q   E S S E E E S S    Q   E S S E E  E S S
|-----1-1-1-----1-1-1-|------3----------3-----|
|-3---3-3-3-3-3-3-3-3-|------3----------3-----|
|-2---2-2-2-2-2-2-2-2-|--3---3-3-3------3-----|
|-0---0-0-0-0-0-0-0-0-|--5---5-5-5-5-5--5-5-5-|
|---------------------|--5-----5-5-5-5--5-5-5-|
|---------------------|--3-----3-3-3-3--3-3-3-|
|
| W                      W
|-1-------------------|--3--------------------|
|-3-------------------|-(3)-------------------|
|-2-------------------|--3--------------------|
|---------------------|-----------------------|
|---------------------|-----------------------|
|---------------------|-----------------------|


  CVIII                AmV
  W                     H.            E E
  |                     |             |
  /                     /             x

  Q  E S S E E E S S    Q   E S S E E E S S
|----0---------------|------0-0-0-----0------|
|-1--1-1-1-----1-1-1-|--1---1-1-1-----1-1-1--|
|-0--0-0-0-0-0-0-0-0-|--2---2-2-2-2-2-2-2-2--|
|-2--2-2-2-2-2-2-2-2-|--2---2-2-2-2-2-2-2-2--|
|-3--3-3-3-3-3-3-3-3-|--0---0-0-0-0-0-0-0-0--|
|--------------------|-----------------------|
|
| W                     W
|-0------------------|-(0)-------------------|
|-1------------------|-(1)-------------------|
|-0------------------|--2--------------------|
|--------------------|-----------------------|
|--------------------|-----------------------|
|--------------------|-----------------------|


  F6                  F6
   E  E E E   +Q   +E E    E  E E E   +H
   |  | | |    |    | |    |  | | |    |
   /  o o o    o    o /    /  o o o    o

   Q    E S S  E E  E E    Q    E S S  E E E S S
|-----------------------|------------------------|
|-------3-----------3---|-------3----------3-----|
|--2----2-2-2--2-2--2-2-|--2----2-2-2--2-2-2-2-2-|
|--3----3-3-3--3-3--3-3-|--3----3-3-3--3-3-3-3-3-|
|--1----1-1-1--1-1--1-1-|--1----1-1-1--1-1-1-1-1-|
|-----------------------|------------------------|
|
|  W                      +W
|-----------------------|------------------------|
|--3--------------------|-(3)--------------------|
|-(2)-------------------|-(2)--------------------|
|-----------------------|------------------------|
|-----------------------|------------------------|
|-----------------------|------------------------|


  A5          A5        A5
  E E Q  +E E E E   +E  E E. S E E Q
  | | |   | | | |    |  | |  | | | |
  / o o   o / o o    o  / o  o o o o

  Q   Q   E Q   E   +E  E E. S E E E S S
|-----0-----0---0-|-(0)---0--------------|
|-3---3-----3---2-|-(2)---2--------2-----|
|-0---0---0-0---0-|-(0)-0-0--0-0-0-0-0-0-|
|-2---2---2-2---2-|-(2)-2-2--2-2-2-2-2-2-|
|-0---0---0-0---0-|-(0)-0-0--0-0-0-0-0-0-|
|-----------------|----------------------|
|
| W                 +W
|-0---------------|-(0)------------------|
|-2---------------|-(2)------------------|
|-2---------------|-(2)------------------|
|-----------------|----------------------|
|-----------------|----------------------|
|-----------------|----------------------|


  Dm                      GmIII(type 2)
  H.              E E      H.            +E.   S
  |               |        |              |    |
  /               x        /              /    /

  Q   E S S S S E E S S    Q   E S S E E  E  S S
|-1---1-1-1-1-1---1-1-1-|------3----------3------|
|-3---3-3-3-3-3-3-3-3-3-|------3----------3------|
|-2---2-2-2-2-2-2-2-2-2-|--3---3-3-3------3------|
|-0---0-0-0-0-0-0-0-0-0-|--5---5-5-5-5-5--5--5-5-|
|-----------------------|--5-----5-5-5-5--5--5-5-|
|-----------------------|--3-----3-3-3-3--3--3-3-|
|
| W                        W
|-1---------------------|--3---------------------|
|-3---------------------|-(3)--------------------|
|-2---------------------|--3---------------------|
|-----------------------|------------------------|
|-----------------------|------------------------|
|-----------------------|------------------------|


  CVIII              AmV
  W                   H.            E E
  |                   |             |
  /                   /             x

  Q  E S S E E E e    Q   E S S E E E S S
|----0---------0---|------0-0-0-----0------|
|-1--1-1-1-----1-1-|--1---1-1-1-1-1-1-1-1--|
|-0--0-0-0-0-0-0-0-|--2---2-2-2-2-2-2-2-2--|
|-2--2-2-2-2-2-2-2-|--2---2-2-2-2-2-2-2-2--|
|-3--3-3-3-3-3-3-3-|--0---0-0-0-0-0-0-0-0--|
|------------------|-----------------------|
|
| W                   W
|-0----------------|-(0)-------------------|
|-1----------------|-(1)-------------------|
|-0----------------|--2--------------------|
|------------------|-----------------------|
|------------------|-----------------------|
|------------------|-----------------------|


  F6                F6
  E E E E   +Q   +E E    E  E E E   +H
  | | | |    |    | |    |  | | |    |
  / o o o    o    o /    /  o o o    o

  Q   E S S  E E  E E    Q    E S S  E E E S S
|-----1-----------1---|------------------------|
|-3---3-3-3-------3-3-|-------3----------3-----|
|-2---2-2-2--2-2--2-2-|--2----2-2-2--2-2-2-2-2-|
|-3---3-3-3--3-3--3-3-|--3----3-3-3--3-3-3-3-3-|
|-1---1-1-1--1-1--1-1-|--1----1-1-1--1-1-1-1-1-|
|---------------------|------------------------|
|
| W                     +W
|---------------------|------------------------|
|-3-------------------|-(3)--------------------|
|-2-------------------|-(2)--------------------|
|---------------------|------------------------|
|---------------------|------------------------|
|---------------------|------------------------|


  A5               A5      A5
  E E Q     +E E E E   +E  E E. S E E   Q
  | | |      | | | |    |  | |  | | |   |
  / o o      o / o o    o  / o  o o o   o

  E E E S S  E Q   E   +E  E E. S E S S E S S
|-----0--------0---0-|-(0)---0----------------|
|-3---3--------3---2-|-(2)---2----2-----2-----|
|-0-0-0-0-0--0-0---0-|-(0)-0-0--0-0-0-0-0-0-0-|
|-2-2-2-2-2--2-2---2-|-(2)-2-2--2-2-2-2-2-2-2-|
|-0-0-0-0-0--0-0---0-|-(0)-0-0--0-0-0-0-0-0-0-|
|--------------------|------------------------|
|
| W                    +W
|-0------------------|-(0)--------------------|
|-2------------------|-(2)--------------------|
|-2------------------|-(2)--------------------|
|--------------------|------------------------|
|--------------------|------------------------|
|--------------------|------------------------|


  Bb5               C5
  H.            +E  E   +E  E Q     E E E E
  |              |  |    |  | |     | | | |
  /              /  /    /  o o     o o o o

  Q   E S S E Q     E   +E  E E S S E E E E
|-1---1-1-1---------0-|-(0)---0---0-0---0---|
|-3---3-3-3-3-3-----1-|-(1)---1-1-1-1---1-0-|
|-2---2-2-2-2-2-----0-|-(0)-0-0-0-0-0-0-0-0-|
|-3---3-3-3-3-3-----2-|-(2)-2-2-2---2-2-2-0-|
|-1---1-----1-1-----3-|-(3)-3-3-----3-3-3---|
|---------------------|---------------------|
|
| H.            +E  E   +W
|---------------------|---------------------|
|-3-------------(3)-1-|-(1)-----------------|
|-2-------------(2)-0-|-(0)-----------------|
|---------------------|---------------------|
|---------------------|---------------------|
|---------------------|---------------------|


                    D5
  E E E E    E  E E E   +H.            Q
  | | | |    |  | | |    |             |
  o o o o    o  o o /    /             x

  Q   E S S  Q    E E   +E  E E. S E E E E
|-------------------1-|-(1)---1--------1-0--|
|-1---1-1-1--1----1-3-|-(3)-3-3--3-3-3-3-0--|
|-2---2-2-2--0----0-2-|-(2)-2-2--2-2-2-2-0--|
|-3---3-3-3--2----2-0-|-(0)-0-0--0-0-0-0-0--|
|-3---3-3-3--3----3---|---------------------|
|-1---1-1-1-----------|---------------------|
|
| H          Q.     E   +W
|-1----------0------1-|-(1)-----------------|
|-1---------(1)-----3-|-(3)-----------------|
|-2---------(2)-----2-|-(2)-----------------|
|---------------------|---------------------|
|---------------------|---------------------|
|---------------------|---------------------|


  Gm                         GmIII(type 2)
   H.            +S E.        H.            +E E
   |              | |         |              | |
   /              / x         /              / x

   Q   E S S e E  E    S S    Q   E S S E E  E E
|-^3---3----------3--------|--3---3----------3---|
|-^3---3-3-3------3--------|--3---3-3-3------3---|
|-^3---3-3-3------3----3-3-|--3---3-3-3------3-3-|
|-^5---5-5-5-5-5--5----5-5-|--5---5-5-5-5-5--5-5-|
|-^5---------5-5--5----5-5-|--5---------5-5--5-5-|
|-^3---------3-3--3----3-3-|--3---------3-3--3-3-|
|
|  W                         +W
|--3-----------------------|-(3)-----------------|
|--3-----------------------|-(3)-----------------|
|--3-----------------------|-(3)-----------------|
|--------------------------|---------------------|
|--------------------------|---------------------|
|--------------------------|---------------------|


  A5
  E E Q    +E E E E   +H.            +E   E
  | | |     | | | |    |              |   |
  / o o     o o o o    o              o   x

  Q   E. S  E Q   E   +H     +E  S S  S S S S
|-----0-------0---0-|-(0)----(0)----------------||
|-3---3--3----3---2-|-(2)----(2)-2-2--2-2-2-2---||
|-0---0--0--0-0---0-|-(0)----(0)-0-0--0-0-0-0---||
|-2---2--2--2-2---2-|-(2)----(2)-2-2--2-2-2-2---||
|-0---0-----0-0---0-|-(0)----(0)-0-0--0-0-0-0---||
|-------------------|---------------------------||
|
| W                   +W
|-0-----------------|-(0)-----------------------||
|-2-----------------|-(2)-----------------------||
|-2-----------------|-(2)-----------------------||
|-------------------|---------------------------||
|-------------------|---------------------------||
|-------------------|---------------------------||


 Verse
  F
   W                    +W
   |                     |
   o                     o

   Q  E S S E E E S S    Q  E S S  E E E S S
|-----1-1-1-----1-1-1-|-----1-1-1------1-1---|
|--1--1-1-1-1-1-1-1-1-|--1--1-1-1--1-1-1-1-0-|
|--2--2-2-2-2-2-2-2-2-|--2--2-2-2--2-2-2-2-0-|
|--3--3-3-3-3-3-3-3-3-|--3--3-3-3--3-3-3-3-0-|
|--3--------3-3-------|--3---------3-3-------|
|---------------------|----------------------|
|
| Gtr V
|  W                     H         H
|-13------------------|-17--------13---------|
|-13------------------|-----------13---------|
|-14------------------|-14-------------------|
|---------------------|----------------------|
|---------------------|----------------------|
|---------------------|----------------------|


  Am
   W                   W
   Q  E S S E E E E    Q  E S S E E E E
|-----0---------0---|-----0---------0---|
|--1--1-1-1-----1---|--1--1-1-1-----1---|
|--2--2-2-2-2-2-2-2-|--2--2-2-2-2-2-2-2-|
|--2--2-2-2-2-2-2-2-|--2--2-2-2-2-2-2-2-|
|--0--0-0-0-0-0-0-0-|--0--0-0-0-0-0-0-0-|
|-------------------|-------------------|
|
|  W                   W
|-12----------------|-------------------|
|-13----------------|-13----------------|
|-14----------------|-14----------------|
|-------------------|-------------------|
|-------------------|-------------------|
|-------------------|-------------------|


  Dm
   W                        W
   Q   E. S E E   E   E     Q     E.    S   E   E  E E
|--1---1--1-------1-----|---1-----1-----1----------1---|
|--3---3--3-3-3---3---3-|---3-----3-----3---3---3--3-3-|
|--2---2--2-2-2---2---2-|---2-----2-----2---2---2--2-2-|
|--0---0--0-0-0---0---0-|---0-----0-----0---0---0--0-0-|
|-----------------------|------------------------------|
|-----------------------|------------------------------|
|
|  H.            +E   E    +E   Q     E    +E   Q.
|--------------------13-|-(13)-12----------------------|
|-----------------------|------------13---(13)-15------|
|-14------------(14)----|------------------------------|
|-15------------(15)----|------------15---(15)---------|
|-----------------------|------------------------------|
|-----------------------|------------------------------|


  Bbmaj7                  C#                   C#5/Ab
   W                       H           Q     E E
                                               |
                                               /

   Q  E. S   E   E  E E    Q     E. S  E  E  E E
|-----------------------|------------------------|
|-----3--3----------3---|--------6--6--------6---|
|--2--2--2---2---2--2-2-|--6-----6--6--6--6--6-6-|
|--3--3--3---3---3--3-3-|--6-----6--6--6--6--6-6-|
|--1--1------1---1--1-1-|--4-----4--4--4--4--4-4-|
|-----------------------|------------------------|
|
|  H        +E   E  Q      E  E  Q     E  E  Q
|-----------------------|-13----------16----13---|
|-11-------(11)----11---|-14-14-------------14---|
|-14-------(14)-14------|-13----13-------13------|
|-----------------------|------------------------|
|-----------------------|------------------------|
|-----------------------|------------------------|


  C5                  A5
   W                   H.                 +E E
   |                   |                   | |
   /                   /                   / o

   Q  E. S  E E E E    Q   E.    S   E  E  E E
|-----0--0------0---|------0-----0---------0---|
|--1--1--1--1-1-1-1-|--1---1-----1---1--1--1-1-|
|--0--0--0--0-0-0-0-|--2---2-----2---2--2--2-2-|
|--2--2--2--2-2-2-2-|--2---2-----2---2--2--2-2-|
|--3--3-----3-3-3-3-|--0---0---------0--0--0-0-|
|-------------------|--------------------------|
|
|  H        H          Q.      E    +Q     Q
|-12----------------|-15------13---(13)---12---|
|-13-------13-------|-13-----------------------|
|-12-------12-------|-14------------------14---|
|-14----------------|--------------------------|
|-------------------|--------------------------|
|-------------------|--------------------------|


  Bbmaj7                     Copen
   H.               +E E      H.           +E  E
   |                 | |      |             |  |
   o                 o /      o             o  o

   Q      E. S  E E  E S S    Q   E. S E E  E  S  S
|--------------------------|------0--0------0--------|
|---------3----------3-----|--1---1--1------1--1--1--|
|--2------2--2--2-2--2-2-2-|--0---0--0-0-0--0--0--0--|
|--3------3--3--3-3--3-3-3-|--2---2--2-2-2--2--2--2--|
|--1------1--1--1-1--1-1-1-|--3---3----3-3--3--3--3--|
|--------------------------|-------------------------|
|
|  E   E  Q     E E  Q        H.            E  S  S
|-----------------8-10-----|-12------------15--------|
|-15-----------11---11-----|-13------------13-13-----|
|-10-----10----10----------|-12------------12----14--|
|-12--12-------------------|-------------------------|
|--------------------------|-------------------------|
|--------------------------|-------------------------|


  Dm                      GmIII                     C#5
  +W                       H.                +E E    W
   |                       |                  | |    |
   /                       o                  o x    /

   Q   E.    S  E E E E    Q      E. S  e  E  E E    Q     E. S   E   E  E  E
|--1---1-----1------1---|---------3--3--------3---|---------------------------|
|--3---3-----3--3-3-3-3-|---------3--3--------3---|--------6-------------6----|
|--2---2-----2--2-2-2-2-|--3------3--3--------3-3-|--6-----6--6---6---6--6--6-|
|--0---0-----0--0-0-0-0-|--5------5--5--5--5--5-5-|--6-----6--6---6---6--6--6-|
|-----------------------|--5------------5--5----5-|--4-----4--4---4---4--4--4-|
|-----------------------|--3------------3--3----3-|---------------------------|
|
|  Q.      E    H          E   E  Q     E  E  Q      E  E  Q     +E   E  E  E
|-13-----------17-------|--------------13---------|-13---------------16-------|
|-15-----------18-------|-15--15-------15---------|-14-14---------------18----|
|-14-----------19-------|-15-----15----15-15------|-13---------------------17-|
|-15--------------------|--------------------17---|-------15----(15)----------|
|---------17------------|-------------------------|---------------------------|
|-----------------------|-------------------------|---------------------------|


  C                        C5
   W                        E  E +H          E   E
   |                        |  |  |          |   |
   o                        /  o  o          x   x

   Q  E. S   E   E E S S    Q     E. S E S S S S S S
|-----0------------0-----|--------0-------------------||
|--1--1--1---------1-----|--1-----1--1-1-1-1-1-1-1-1--||
|--0--0--0---0---0-0-0-0-|--0-----0--0-0-0-0-0-0-0-0--||
|--2--2--2---2---2-2-2-2-|--2-----2--2-2-2-2-2-2-2-2--||
|--3--3--3---3---3-3-3-3-|--3-----3--3-3-3-3-3-3-3-3--||
|------------------------|----------------------------||
|
|  H        +E   Q   E     +E  E  E. S H
|-12-------(12)-10---8---|-(8)------------------------||
|------------------------|----------------------------||
|--9--------(9)----------|--------5----7--------------||
|------------------------|-----5-----7----------------||
|------------------------|----------------------------||
|------------------------|----------------------------||


 Chorus
  DmX                    GmIII(type 2)
   H.              E E    H.             +E E
   |               |      |               | |
   /               x      /               / x

   Q   E  S S  E E E E    Q   E S S  E E  E E
|--1---1--1-1------1---|------3-----------3---|
|--3---3--3-3--3-3-3-3-|------3-----------3---|
|--2---2--2-2--2-2-2-2-|--3---3-3-3-------3-3-|
|--0---0--0-0--0-0-0-0-|--5---5-5-5--5-5--5-5-|
|----------------------|--5-----5-5--5-5--5-5-|
|----------------------|--3-----3-3--3-3--3-3-|
|
|  Q.     E    H          H          H
|-13----------17-------|------------13--------|
|-15----------18-------|-15---------15--------|
|-14----------14-------|-15---------15--------|
|----------------------|-17---------17--------|
|--------17------------|----------------------|
|----------------------|----------------------|


  CVIII                       AmV
   W                            H.                    +S S E
   |                            |                      | |
   /                            /                      / x

   Q  E S S   E   E  E  S S     Q     E  S S   E   E   E   S S
|-----0---------------------|---------0--0-0-----------0---------|
|--1--1-1-1----------1--1-1-|---1-----1--1-1-----------1---1-1---|
|--0--0-0-0---0---0--0--2-2-|---2-----2--2-2---2---2---2---2-2---|
|--2--2-2-2---2---2--2--2-2-|---2-----2--2-2---2---2---2---2-2---|
|--3--3-3-3---3---3--3--0-0-|---0-----0--0-0---0---0---0---0-0---|
|---------------------------|------------------------------------|
|
|  H         +E   E  E  E      +E   Q    E    +E   Q.
|---------------------------|------18----------------------------|
|-17--------(17)-------17---|-(17)------17---(17)-17-------------|
|-17--------(17)-17-17-17---|-(17)------17---(17)----------------|
|-17--------(17)------------|---------------------14-------------|
|---------------------------|------------------------------------|
|---------------------------|------------------------------------|


  F6                     F6
   E  E  E  E   +Q    +E  E       E   E  E E    +H
   |  |  |  |    |     |  |       |   |  | |     |
   /  o  o  o    o     o  /       /   o  o o     o

   Q     E  S S  E  E  E  S S     Q      E S S   E   E  E  S S
|-----------------------------|--------------------------------|
|--3-----3-------------3--3-3-|---3------3--------------3--3-3-|
|--2-----2--2-2--2--2--2--2-2-|---2------2-2-2---2---2--2--2-2-|
|--3-----3--3-3--3--3--3--3-3-|---3------3-3-3---3---3--3--3-3-|
|--1-----1--1-1--1--1--1--1-1-|---1------1-1-1---1---1--1--1-1-|
|-----------------------------|--------------------------------|
|
|  E  E  E  E    Q.       E      +E   Q.        +E   E  E  E
|-13---------------------13---|-(13)---------------------------|
|-15--------------------------|------15--------(15)----15------|
|---------------14------------|---------------------14----14---|
|----12----12-----------------|--------------------------------|
|-12----12--------------------|--------------------------------|
|-----------------------------|--------------------------------|


  A5                       A5        A5
   E E  Q        +E   E  E  E    +E   E  E. S  E  E  Q
   | |  |         |   |  |  |     |   |  |  |  |  |  |
   / o  o         o   /  o  o     o   /  o  o  o  o  o

   Q    E.    S   E   Q     E    +E   E  E. S  E  E  S S S S
|-------0-------------0-----0-|--(0)-----0---------------------|
|--3----3-----3-------3-----2-|--(2)-----2-----------2-2-------|
|--0----0-----0---0---0-----0-|--(0)--0--0--0--0--0--0-0-0-0---|
|--2----2-----2---2---2-----2-|--(2)--2--2--2--2--2--2-2-2-2---|
|--0----0-----0---0---0-----0-|--(0)--0--0--0--0--0--0-0-0-0---|
|-----------------------------|--------------------------------|
|
|  Q    E   E    +E   E  E  E    +E   E  Q     E  E  Q
|-----------------------------|---------------------12---------|
|-15-------15---(15)----15-14-|-(14)----14----14-15------------|
|------14------------14-------|------14------------------------|
|-----------------------------|--------------------------------|
|-----------------------------|--------------------------------|
|-----------------------------|--------------------------------|


  DmX                   GmIII(type 2)
   H.             E E    H.             E E
   |              |      |              | |
   /              x      /              x x

   Q   E S S  E E E E    Q   E S S  E E E E
|--1---1-1-1------1---|------3----------3---|
|--3---3-3-3--3-3-3-3-|------3----------3---|
|--2---2-2-2--2-2-2-2-|--3---3-3-3------3-3-|
|--0---0-0-0--0-0-0-0-|--5---5-5-5--5-5-5-5-|
|---------------------|--5-----5-5--5-5-5-5-|
|---------------------|--3-----3-3--3-3-3-3-|
|
|  H          H          H          H
|-13------------------|------------13-------|
|-15---------15-------|------------15-------|
|-14---------14-------|-15------------------|
|---------------------|-17------------------|
|---------------------|---------------------|
|---------------------|---------------------|


  CVIII                       AmV
   W                            H.                    E E
   |                            |                     |
   /                            /                     x

   Q  E S S   E   E  E  S S     Q     E  S S   E   E  E S S
|-----0---------------------|---------0--0-0----------0-----|
|--1--1-1-1----------1--1-1-|---1-----1--1-1----------1-1-1-|
|--0--0-0-0---0---0--0--0-0-|---2-----2--2-2---2---2--2-2-2-|
|--2--2-2-2---2---2--2--2-2-|---2-----2--2-2---2---2--2-2-2-|
|--3--3-3-3---3---3--3--3-3-|---0-----0--0-0---0---0--0-0-0-|
|---------------------------|-------------------------------|
|
|  H         +E   E  E  E      +E   Q    E    +E   E  Q
|---------------------------|------18-------------17-17-----|
|-17--------(17)-------17---|-(17)------17---(17)-----------|
|-17--------(17)-17----17---|-(17)------17---(17)-----------|
|-17--------(17)----17------|---------------------14-14-----|
|---------------------------|-------------------------------|
|---------------------------|-------------------------------|


  F6                    F6
   E  E E E   +Q    +E   E       E   E E  E    +H
   |  | | |    |     |   |       |   | |  |     |
   /  o o o    o     o   /       /   o o  o     o

   Q    E S S  E E   E   S S     Q     E  S S   E   E E  S S
|----------------------------|-------------------------------|
|--3----3------------3---3-3-|---3-----3--------------3--3-3-|
|--2----2-2-2--2-2---2---2-2-|---2-----2--2-2---2---2-2--2-2-|
|--3----3-3-3--3-3---3---3-3-|---3-----3--3-3---3---3-3--3-3-|
|--1----1-1-1--1-1---1---1-1-|---1-----1--1-1---1---1-1--1-1-|
|----------------------------|-------------------------------|
|
| Gtr III
|  W                             W
|----------------------------|-------------------------------|
|----------------------------|-------------------------------|
|----------------------------|-------------------------------|
|----------------------------|-------------------------------|
|----------------------------|-------------------------------|
|----------------------------|-------------------------------|
|
| Gtr V
|  H.               +E   E      +E   Q    E    +E   Q    E
|-----------------------13---|-(13)------18---(18)-----------|
|-15---------------(15)------|------15-------------18---15---|
|-15---------------(15)------|-----------15---(15)-----------|
|-15---------------(15)------|---------------------15---12---|
|----------------------------|-------------------------------|
|----------------------------|-------------------------------|


  A5                   A5              A5
    E  E  Q        +E   E  E  E    +E   E  E. S  E    E  Q
    |  |  |         |   |  |  |     |   |  |  |  |    |  |
    /  o  o         o   /  o  o     o   /  o  o  o    o  o

    Q     E.    S   E   Q     E    +E   E  E. S  S S  E  E S S
|---------0-------------0-----0-|--(0)-----0---------------------|
|---3-----3-----3-------3-----2-|--(2)-----2-----2-2-------2-2---|
|---0-----0-----0---0---0-----0-|--(0)--0--0--0--0-0--0--0-0-0---|
|---2-----2-----2---2---2-----2-|--(2)--2--2--2--2-2--2--2-2-2---|
|---0-----0-----0---0---0-----0-|--(0)--0--0--0--0-0--0--0-0-0---|
|-------------------------------|--------------------------------|
|
|   Q     Q        +Q      E  E    +Q      Q     E    E  Q
|-------------------------------|-----------------------12-------|
|--------15-------(15)----15-14-|-(14)----14----14---15----------|
|-------------------------------|--------------------------------|
|-------------------------------|--------------------------------|
|-------------------------------|--------------------------------|
|-------------------------------|--------------------------------|
|
|  +Q     E   E    +E   E  E  E    +E   E  Q     E    E  Q
|-------------------------------|-----------------------12-------|
|-(15)-------15---(15)----15-14-|-(14)----14----14---15----------|
|--------14------------14-------|------14------------------------|
|-(12)--------------------------|--------------------------------|
|-------------------------------|--------------------------------|
|-------------------------------|--------------------------------|


              Bb5       C5
   Q   E  E    Q.        E    +E  E Q      +E   S S  E  E
   |   |  |    |         |     |  | |       |   | |  |  |
   o   o  o    /         /     /  o o       o   o o  o  o

   Q   E  S S  E   Q     E    +E  E E S S   E   E    E  E
|--1---1--1-1------------0-|--(0)---0---0---0--------0----|
|--3---3--3-3--3---3-----1-|--(1)---1-1-1---1--------1--0-|
|--2---2--2-2--2---2-----0-|--(0)-0-0-0-0---0---0----0--0-|
|--3---3--3-3--3---3-----2-|--(2)-2-2-2-----2---2----2--0-|
|--1---1-------1---1-----3-|--(3)-3-3-------3---3----3----|
|--------------------------|------------------------------|
|
| Gtr V
|  Q.     E    E   E  E  E    +H           +E   E    E  E
|-13-----------------------|---------------------------15-|
|-15-----------------15-13-|-(13)---------(13)------------|
|-15--------------15----14-|-(14)---------(14)------12----|
|-------------15-----------|-------------------14---------|
|--------17----------------|------------------------------|
|--------------------------|------------------------------|


                        D5
   E  E  E  E    E  E E  E    +H.               +E E
   |  |  |  |    |  | |  |     |                 |
   o  o  o  o    o  o o  /     /                 /

   Q     E  S S  Q    E  E    +E   E  E. S  E E  E E
|------------------------1-|--(1)-----1----------1-0-|
|--1-----1--1-1--1----1--3-|--(3)--3--3--3--3-3--3-0-|
|--2-----2--2-2--0----0--2-|--(2)--2--2--2--2-2--2-0-|
|--3-----3--3-3--2----2--0-|--(0)--0--0--0--0-0--0-0-|
|--3-----3--3-3--3----3----|-------------------------|
|--1-----1--1-1------------|-------------------------|
|
|  E  E  E  E    Q.      E    +E   E  Q     H
|-17-----------------------|-------------------------|
|-18----18------17------15-|-(15)----15----17--------|
|----17----17---17------14-|-(14)-14-----------------|
|-15------------14---------|-------------------------|
|--------------------------|-------------------------|
|--------------------------|-------------------------|


  Gm                             GmIII(type 2)
    H.             +S  E.          H.                   +E  E
    |               |  |           |                     |  |
    /               /  x           /                     /  x

    Q   E S S e E   E      S S     Q     E  S S   E   E  E  S S
|---3---3-----------3----------|---3-----3---------------3------|
|---3---3-3-3-------3----------|---3-----3--3-3----------3------|
|---3---3-3-3-------3------3-3-|---3-----3--3-3----------3--3-3-|
|---5---5-5-5-5-5---5------5-5-|---5-----5--5-5---5---5--5--5-5-|
|---5---------5-5---5------5-5-|---5--------------5---5--5--5-5-|
|---3---------3-3---3------3-3-|---3--------------3---3--3--3-3-|
|
| Gtr III
|   W                              W
|------------------------------|--------------------------------|
|------------------------------|--------------------------------|
|------------------------------|--------------------------------|
|------------------------------|--------------------------------|
|------------------------------|--------------------------------|
|------------------------------|--------------------------------|
|
| Gtr V
|   H.             +E      E      +E   Q    E    +E   Q     E
|------------------------------|--------------------------------|
|-^11-------------(11)----13---|-(13)-11---10---(10)-11----10---|
|-^12-------------(12)---------|--------------------------------|
|-^12-------------(12)---------|--------------------------------|
|------------------------------|--------------------------------|
|------------------------------|--------------------------------|


  A5
   E  E  Q        +E   E  E  E    +W
   |  |  |         |   |  |  |     |
   /  o  o         o   o  o  o     o

   Q     E.    S   E   Q     E    +E   E  E  E E S S  S  S S S
|--------0-------------0-----0-|--(0)--0--0--0-----------------||
|--3-----3-----3-------3-----2-|--(2)--2--2--2-2-2-2--2--2-2-2-||
|--0-----0-----0---0---0-----0-|--(0)--0--0--0-0-0-0--0--0-0-0-||
|--2-----2-----2---2---2-----2-|--(2)--2--2--2-2-2-2--2--2-2-2-||
|--0-----0---------0---0-----0-|--(0)--0--0--0-0-0-0--0--0-0-0-||
|------------------------------|-------------------------------||
|
|  W                               H           Q      Q
|------------------------------|-------------------------------||
|------------------------------|-------------------------------||
|------------------------------|-------------------------------||
|------------------------------|---------------------17\-------||
|------------------------------|-------------------------------||
|------------------------------|-------------------------------||
|
|  E  E  E   E    +E   E  E  E    +E   E  H.
|------------------------------|-------------------------------||
|-----------15---(15)----15-14-|-(14)----14--------------------||
|-------14---------------------|-------------------------------||
|----14---------------14----11-|-(11)-14-----------------------||
|-12---------------------------|-------------------------------||
|------------------------------|-------------------------------||


 Guitar Solo
  F
  Q     H.                 +W
  |     |                   |
  o     o                   o

  Q     E  S S E E E S S    Q   E S S  E  E     E     S S
|-------1--1-1-----1-1-1-|------1-1-1-----------1-----1---|
|-1-----1--1-1-1-1-1-1-1-|--1---1-1-1--1--1-----1-----1-0-|
|-2-----2--2-2-2-2-2-2-2-|--2---2-2-2--2--2-----2-----2-0-|
|-3-----3--3-3-3-3-3-3-3-|--3---3-3-3--3--3-----3-----3-0-|
|-3------------3-3-------|--3----------3--3---------------|
|------------------------|--------------------------------|
|
| W                        +H         +E  E     Q
|------------------------|--------------------------------|
|------------------------|--------------------------------|
|------------------------|--------------------------------|
|-7b10-------------------|-(7)--------(7)-7pb10-7pb10r====|
|------------------------|--------------------------------|
|------------------------|--------------------------------|


  Am
  W                        W
  Q     E S S E E E S S    Q   E S S  E      E E  S   S
|-------0---------0-----|------0---------------0-----------|
|-1-----1-1-1-----1-1-1-|--1---1-1-1-----------1--1---0----|
|-2-----2-2-2-2-2-2-2-2-|--2---2-2-2--2------2-2--2---0----|
|-2-----2-2-2-2-2-2-2-2-|--2---2-2-2--2------2-2--2---0----|
|-0-----0-0-0-0-0-0-0-0-|--0---0-0-0--0------0-0--0--------|
|-----------------------|----------------------------------|
|
|                                            ~~~~~~~~
| W                       +H         +E      Q   +S  +S
|-----------------------|----------------------------------|
|-----------------------|----------------------------------|
|-----------------------|----------------------------------|
|-7b10------------------|-(7)--------(7)pb10r7---(7)-(7)/--|
|-----------------------|----------------------------------|
|-----------------------|----------------------------------|


  Dm
   Q     E. S   E  E E   E           Q           E. S   E      E E  E
|--1-----1--1--------1------------|--1-----------1--1------------1-------|
|--3-----3--3---3--3-3---3--------|--3-----------3--3---3------3-3--3----|
|--2-----2--2---2--2-2---2--------|--2-----------2--2---2------2-2--2----|
|--0-----0--0---0--0-0---0--------|--0-----------0--0---0------0-0--0----|
|---------------------------------|--------------------------------------|
|---------------------------------|--------------------------------------|
|
|  H           +Q.      +S   +S      E     +E   +Q     +Q.          S  S
|---------------------------------|--------------------------------------|
|---------------------------------|--------------------------------------|
|---------------------------------|--------------------------------------|
|-10b12-------(10)-----(10)-(10)r-|-12b14-(12)-(12)---(12)pb14r====12p10-|
|---------------------------------|--------------------------------------|
|---------------------------------|--------------------------------------|


  Bbmaj7                 C#
   Q  E. S   E  E E  E    Q    E.    S  E   E     E   S      S
|----------------------|---------------------------------------|
|-----3--3--------3----|-------6-----6------------6------------|
|--2--2--2---2--2-2--2-|--6----6-----6--6---6-----6---6------6-|
|--3--3--3---3--3-3--3-|--6----6-----6--6---6-----6---6------6-|
|--1--1------1--1-1--1-|--4----4-----4--4---4-----4---4------4-|
|----------------------|---------------------------------------|
|
|  H        +Q.      E    E  Q     E    E  +Q        +E
|----------------------|---------------------------------------|
|----------------------|---------------------------------------|
|----------------------|---------------------------------------|
|-12-------(12)-----12-|-12p11----11---11-(11)b13---(11)pb13r==|
|----------------------|---------------------------------------|
|----------------------|---------------------------------------|


  C                             Am
   Q   E. S   E   E E       E    Q       E. S   E      E E  E
|------0--0---------0---------|----------0--0------------0----|
|--1---1--1---1---1-1-------1-|--1-------1--1---1------1-1--1-|
|--0---0--0---0---0-0-------0-|--2-------2--2---2------2-2--2-|
|--2---2--2---2---2-2-------2-|--2-------2--2---2------2-2--2-|
|--3---3------3---3-3-------3-|--0-------0------0------0-0--0-|
|-----------------------------|-------------------------------|
|
|      ~~~
|  Q   Q     +E   Q     a   E    Q      +Q     +Q.          E
|-----------------------------|-------------------------------|
|-----------------------------|-------------------------------|
|-----------------------------|-------------------------------|
|-10--10----(10)-10---(10)s15-|-15b17--(15)---(15)pb17r====14-|
|-----------------------------|-------------------------------|
|-----------------------------|-------------------------------|


  Bbmaj7                     C
   Q   E. S E E   E   S  S    Q       E. S   E      E E  S  S
|--------------------------|----------0--0------------0--------|
|------3----------3--------|--1-------1--1------------1--1--1--|
|--2---2--2-2-2---2---2--2-|--0-------0--0---0------0-0--0--0--|
|--3---3--3-3-3---3---3--3-|--2-------2--2---2------2-2--2--2--|
|--1---1--1-1-1---1---1--1-|--3-------3------3------3-3--3--3--|
|--------------------------|-----------------------------------|
|
|  H.            +E   S  S    Q      +Q     +Q.          S  S
|--------------------------|-----------------------------------|
|--------------------------|-----------------------------------|
|--------------------------|-----------------------------------|
|-12------------(12)-10h12-|-12b14--(12)---(12)pb14r====12p10--|
|--------------------------|-----------------------------------|
|--------------------------|-----------------------------------|


  Dm                         GmIII
   Q  E. S   E   E E   E      Q  E. S  e  E E E
|--1--1--1---------1-------|-----3--3-------3---|
|--3--3--3---3---3-3---3---|-----3--3-------3---|
|--2--2--2---2---2-2---2---|--3--3--3-------3-3-|
|--0--0--0---0---0-0---0---|--5--5--5--5--5-5-5-|
|--------------------------|--5--------5--5---5-|
|--------------------------|--3--------3--3---3-|
|
|                                         ~
|  H        +E   Q    +E      H       +E  Q   E
|--------------------------|--------------------|
|--------------------------|--------------------|
|--------------------------|--------------------|
|-12-------(12)-12---(12)\-|-/5-------(5)-5---5-|
|--------------------------|--------------------|
|--------------------------|--------------------|
|
| Gtr V
|  W                          W
|--------------------------|--------------------|
|--------------------------|--------------------|
|--------------------------|--------------------|
|--------------------------|--------------------|
|--------------------------|--------------------|
|--------------------------|--------------------|


  C#                        C
  Q   E. S E E   E  E       E E E E E E E E    E  E  E  E  H
|-------------------------|-----------------|--0--0--0--0--0----------||
|-----6----------6--------|---------1-1-1-1-|--1--1--1--1--1----------||
|-6---6--6-6-6---6--6-----|-0-0-0-0-0-0-0-0-|--0--0--0--0--0----------||
|-6---6--6-6-6---6--6-----|-2-2-2-2-2-2-2-2-|--2--2--2--2--2----------||
|-4---4--4-4-4---4--4-----|-3-3-3-3-3-3-3-3-|--3--3--3--3--3----------||
|-------------------------|-----------------|-------------------------||
|
| E E Q    E Q     +E       E E E E E E E E    E  E  E  E  E  E  E  E
|-------------------------|-----------------|-------------------------||
|-------------------------|-----------------|-------------------------||
|-6-6-6----6-6b8---(6)pb8r|=5-5-5-5-5-5-5-5S|=17-17-17-17-17-15-14-15-||
|-------------------------|-----------------|-------------------------||
|-------------------------|-----------------|-------------------------||
|-------------------------|-----------------|-------------------------||
|
| W                         W                  H           E  E  E  E
|-------------------------|-----------------|-------------------13----||
|-------------------------|-----------------|----------------18----18-||
|-------------------------|-----------------|-------------19----------||
|-------------------------|-----------------|-------------------------||
|-------------------------|-----------------|-------------------------||
|-------------------------|-----------------|-------------------------||


 Chorus
  DmX                            GmIII(type 2)
  Gtr II
   H.                    E E      H.             +E E
   |                     |        |               | |
   /                     x        /               / x

   Q   E  S S  E E       E S S    Q   E S S  E E  E E
|--1---1--1-1------------1-----|------3-----------3---|
|--3---3--3-3--3-3-------3-3-3-|------3-----------3---|
|--2---2--2-2--2-2-------2-2-2-|--3---3-3-3-------3-3-|
|--0---0--0-0--0-0-------0-0-0-|--5---5-5-5--5-5--5-5-|
|------------------------------|--5-----5-5--5-5--5-5-|
|------------------------------|--3-----3-3--3-3--3-3-|
|
|  H.                a   Q        W
|------------------------------|----------------------|
|------------------------------|----------------------|
|-14---------------(14)\-------|----------------------|
|------------------------------|----------------------|
|------------------------------|----------------------|
|------------------------------|----------------------|
|
|  Q.     E    H                  H          H
|-13----------17---------------|------------13--------|
|-15----------18---------------|-15---------15--------|
|-14----------19---------------|-15---------15--------|
|------------------------------|-17---------17--------|
|--------17--------------------|----------------------|
|------------------------------|----------------------|


  CVIII                        AmV
   H.                 E  E       H.                    +S S E
   |                  |          |                      | |
   /                  x          /                      / x

   Q   E S S   E   E  E  S S     Q     E  S S   E   E   E   E
|------0---------------------|---------0--0-0-----------0------|
|--1---1-1-1----------1--1-1-|---1-----1--1-1-----------1---1--|
|--0---0-0-0---0---0--0--0-2-|---2-----2--2-2---2---2---2---2--|
|--2---2-2-2---2---2--2--2-2-|---2-----2--2-2---2---2---2---2--|
|--3---3-3-3---3---3--3--3-0-|---0-----0--0-0---0---0---0---0--|
|----------------------------|---------------------------------|
|
|  W                             W
|----------------------------|---------------------------------|
|----------------------------|---------------------------------|
|----------------------------|---------------------------------|
|----------------------------|---------------------------------|
|----------------------------|---------------------------------|
|----------------------------|---------------------------------|
|
|  H          +E   E  E  E      +E   Q    E    +E   Q.
|----------------------------|------18-------------------------|
|-17---------(17)-------17---|-(17)------17---(17)-17----------|
|-17---------(17)-17-17-17---|-(17)------17---(17)-------------|
|-17---------(17)------------|---------------------14----------|
|----------------------------|---------------------------------|
|----------------------------|---------------------------------|


  F6                    F6
   E  E  E  E   +Q   +E  E       E   E  E E    +H
   |  |  |  |    |    |  |       |   |  | |     |
   /  o  o  o    o    o  /       /   o  o o     o

   Q     E  S S  E E  E  S S     Q      E S S   E   E  E  S S
|----------------------------|--------------------------------|
|--3-----3------------3--3-3-|---3------3--------------3--3-3-|
|--2-----2--2-2--2-2--2--2-2-|---2------2-2-2---2---2--2--2-2-|
|--3-----3--3-3--3-3--3--3-3-|---3------3-3-3---3---3--3--3-3-|
|--1-----1--1-1--1-1--1--1-1-|---1------1-1-1---1---1--1--1-1-|
|----------------------------|--------------------------------|
|
| Gtr V
|  E  E  E  E    Q    E  E      +E   Q.        +E   E  E  E
|----------------------------|--------------------------------|
|-11-----------------15------|------15--------(15)-------15---|
|-14----10------14------14---|-(14)----------------14-15------|
|----12----12----------------|--------------------------------|
|----------------------------|--------------------------------|
|----------------------------|--------------------------------|


  A5                 A5              A5
   E E  Q        +E   E  E  E    +E   E  E. S  E  E  Q
   | |  |         |   |  |  |     |   |  |  |  |  |  |
   / o  o         o   /  o  o     o   /  o  o  o  o  o

   Q    E.    S   E   Q     E    +E   E  E. S  E  E  S S S S
|-------0-------------0-----0-|--(0)-----0---------------------|
|--3----3-----3-------3-----2-|--(2)-----2-----------2-2-------|
|--0----0-----0---0---0-----0-|--(0)--0--0--0--0--0--0-0-0-0---|
|--2----2-----2---2---2-----2-|--(2)--2--2--2--2--2--2-2-2-2---|
|--0----0-----0---0---0-----0-|--(0)--0--0--0--0--0--0-0-0-0---|
|-----------------------------|--------------------------------|
|
|  Q    E   E    +E   E  E  E    +E   E  Q     E  E  Q
|-----------------------------|---------------------12---------|
|-15-------15---(15)----15-14-|-(14)----14----14-15------------|
|------14------------14-------|------14------------------------|
|-----------------------------|--------------------------------|
|-----------------------------|--------------------------------|
|-----------------------------|--------------------------------|


  DmX                     GmIII(type 2)
   H.             E E      H.             E E
   |              | |      |              | |
   /              x x      /              x o

   Q   E S S  E E E S S    Q   E S S  E E E E
|--1---1-1-1------1-----|------3----------3---|
|--3---3-3-3--3-3-3-3-3-|------3----------3---|
|--2---2-2-2--2-2-2-2-2-|--3---3-3-3------3-3-|
|--0---0-0-0--0-0-0-0-0-|--5---5-5-5--5-5-5-5-|
|-----------------------|--5-----5-5--5-5-5-5-|
|-----------------------|--3-----3-3--3-3-3-3-|
|
|  H          H            H          H
|-13--------------------|------------13-------|
|-15---------15---------|------------15-------|
|-14---------14---------|-15------------------|
|-----------------------|-17------------------|
|-----------------------|---------------------|
|-----------------------|---------------------|


  CVIII                        AmV
   H.                 E  E       H.                   +E E
   |                  |          |                     | |
   /                  x          /                     / x

   Q   E S S   E   E  E  S S     Q     E  S S   E   E  E E
|------0---------------------|---------0--0-0----------0---|
|--1---1-1-1----------1--1-1-|---1-----1--1-1----------1-1-|
|--0---0-0-0---0---0--0--0-0-|---2-----2--2-2---2---2--2-2-|
|--2---2-2-2---2---2--2--2-2-|---2-----2--2-2---2---2--2-2-|
|--3---3-3-3---3---3--3--3-3-|---0-----0--0-0---0---0--0-0-|
|----------------------------|-----------------------------|
|
|  H          +E   E  E  E      +E   Q    E    +E   E  Q
|----------------------------|------18---24---(24)---------|
|-17---------(17)-------17---|-(17)----------------13-15---|
|-17---------(17)-17----17---|-(17)------17---(17)-15------|
|-17---------(17)----17------|------------------------15---|
|----------------------------|-----------------------------|
|----------------------------|-----------------------------|


  F6                     F6
   E  E  E  E   +Q    +E  E      E  E E  E    +H
   |  |  |  |    |     |  |      |  | |  |     |
   /  o  o  o    o     o  /      /  o o  o     o

   Q     E  S S  E  E  E  S S    Q    E  S S   E  E E S S
|-----------------------------|---------------------------|
|--3-----3-------------3--3-3-|--3----3-------------3-3-3-|
|--2-----2--2-2--2--2--2--2-2-|--2----2--2-2---2--2-2-2-2-|
|--3-----3--3-3--3--3--3--3-3-|--3----3--3-3---3--3-3-3-3-|
|--1-----1--1-1--1--1--1--1-1-|--1----1--1-1---1--1-1-1-1-|
|-----------------------------|---------------------------|
|
| Gtr III
|  W                             W
|-----------------------------|---------------------------|
|-----------------------------|---------------------------|
|-----------------------------|---------------------------|
|-----------------------------|---------------------------|
|-----------------------------|---------------------------|
|-----------------------------|---------------------------|
|
| Gtr V
|  E  E  E  E    E  E  E  E      E  Q    E    +H
|-----------------------------|---------18---(18)---------|
|-15--------------------------|----15---------------------|
|-15----17-15---14h15-17-15---|-15------15---(15)---------|
|-15--------------------------|-15------------------------|
|----17-----------------------|---------------------------|
|-----------------------------|---------------------------|


  A5                  A5              A5
   E  E  Q        +E   E  E  E    +E   E  E. S  E    E    Q
   |  |  |         |   |  |  |     |   |  |  |  |    |    |
   /  o  o         o   /  o  o     o   /  o  o  o    o    o

   Q     E.    S   E   Q     E    +E   E  E. S  S S  S S  E S S
|--------0-------------0-----0-|--(0)-----0----------------------|
|--3-----3-----3-------3-----2-|--(2)-----2-----2-2-------2-2-2--|
|--0-----0-----0---0---0-----0-|--(0)--0--0--0--0-0--0-0--0-0-0--|
|--2-----2-----2---2---2-----2-|--(2)--2--2--2--2-2--2-2--2-2-2--|
|--0-----0-----0---0---0-----0-|--(0)--0--0--0--0-0--0-0--0-0-0--|
|------------------------------|---------------------------------|
|
|  E  E  Q        +E   E  E  E    +Q      Q     E    E    Q
|------------------------------|-------------------------12------|
|-------15-------(15)----15-14-|-(14)----14----14h==15-----------|
|------------------------------|---------------------------------|
|----14------------------------|---------------------------------|
|--0-------------------0-------|---------------------------------|
|------------------------------|---------------------------------|
|
|  Q     E   E    +E   E  E  E    +E   E  Q     E    E    Q
|------------------------------|-------------------------12------|
|-15--------15---(15)----15-14-|-(14)----14----14---15-----------|
|-------14------------14-------|------14-------------------------|
|-12---------------------------|---------------------------------|
|------------------------------|---------------------------------|
|------------------------------|---------------------------------|


              Bb5       C5
   Q   E  E    Q.        E    +E  E Q       e   S S  E  E
   |   |  |    |         |     |  | |       |   | |  |  |
   o   o  o    /         /     /  o o       o   o o  o  o

   Q   E  S S  E   Q     E    +E  E E S S   E   E    E  E
|--1---1--1-1------------0-|--(0)---0---0---0--------0----|
|--3---3--3-3--3---3-----1-|--(1)---1-1-1---1--------1--0-|
|--2---2--2-2--2---2-----0-|--(0)-0-0-0-0---0---0----0--0-|
|--3---3--3-3--3---3-----2-|--(2)-2-2-2-----2---2----2--0-|
|--1---1-------1---1-----3-|--(3)-3-3-------3---3----3----|
|--------------------------|------------------------------|
|
| Gtr V
|  Q.     E    E   E  E  E    +H           +E   E    E  E
|-13-----------------------|---------------------------15-|
|-15-----------------15-13-|-(13)---------(13)------------|
|-15--------------15----14-|-(14)---------(14)------12----|
|-------------15-----------|-------------------14---------|
|--------17----------------|------------------------------|
|--------------------------|------------------------------|


                        D5
   E  E  E  E    E  E E  E    +Q      Q         E  E E E
   |  |  |  |    |  | |  |     |      |         |  | | |
   o  o  o  o    o  o o  /     /      /         o  o o o

   Q     E  S S  Q    E  E    +E   E  E.    S   E  E E E
|------------------------1-|--(1)-----1--------------1-0--|
|--1-----1--1-1--1----1--3-|--(3)--3--3-----3---3--3-3-0--|
|--2-----2--2-2--0----0--2-|--(2)--2--2-----2---2--2-2-0--|
|--3-----3--3-3--2----2--0-|--(0)--0--0-----0---0--0-0-0--|
|--3-----3--3-3--3----3----|------------------------------|
|--1-----1--1-1------------|------------------------------|
|
|  E  E  E  E    Q.      E    +E   E  E   E    +H
|-17-----------------------|------------------------------|
|-18----18------17------15-|-(15)----15--17---(17)--------|
|----17----17---17------14-|-(14)-14----------------------|
|-15------------14---------|------------------------------|
|--------------------------|------------------------------|
|--------------------------|------------------------------|


  Gm                           GmIII(type 2)
    H.                Q          H.                    Q
    |                 |          |                     |
    /                 x          /                     x

    Q   E  S S   e  E E  S S     Q     E  S S   E   E  E S S
|---3---3-------------3------|---3-----3---------------3-----|
|---3---3--3-3--------3------|---3-----3--3-3----------3-----|
|---3---3--3-3--------3--3-3-|---3-----3--3-3----------3-3-3-|
|---5---5--5-5---5--5-5--5-5-|---5-----5--5-5---5---5--5-5-5-|
|---5------------5--5-5--5-5-|---5--------------5---5--5-5-5-|
|---3------------3--3-3--3-3-|---3--------------3---3--3-3-3-|
|
| Gtr III
|   W                            W
|----------------------------|-------------------------------|
|----------------------------|-------------------------------|
|----------------------------|-------------------------------|
|----------------------------|-------------------------------|
|----------------------------|-------------------------------|
|----------------------------|-------------------------------|
|
| Gtr V
|   Q.     E    +Q.      E      +E   Q    E    +E   Q.
|----------------------------|-------------------------------|
|-^11-----10---(10)-----13---|-(13)-11---10---(10)-11--------|
|-^12------------------------|-------------------------------|
|-^12------------------------|-------------------------------|
|----------------------------|-------------------------------|
|----------------------------|-------------------------------|


  A5                  A5              A5
   E  E  Q        +E   E  E  E    +E   E  E.   S   E   E     Q
   |  |  |         |   |  |  |     |   |  |    |   |   |     |
   /  o  o         o   /  o  o     o   /  o    o   o   o     o

   Q     E.    S   E   Q     E    +E   E  E  E     E   S  S  S S S S
|--------0-------------0-----0-|--(0)--0--0--0-----------------------|
|--3-----3-----3-------3-----2-|--(2)--2--2--2-----2---2--2--2-2-2-2-|
|--0-----0-----0---0---0-----0-|--(0)--0--0--0-----0---0--0--0-0-0-0-|
|--2-----2-----2---2---2-----2-|--(2)--2--2--2-----2---2--2--2-2-2-2-|
|--0-----0---------0---0-----0-|--(0)--0--0--0-----0---0--0--0-0-0-0-|
|------------------------------|-------------------------------------|
|
|  E  E  Q        +E   E  E  E    +Q      Q        E   E     Q
|------------------------------|----------------------------12-------|
|-------15-------(15)----15-14-|-(14)----14-------14--15-------------|
|------------------------------|-------------------------------------|
|----14---------------14-------|-------------------------------------|
|--0---------------------------|-------------------------------------|
|------------------------------|-------------------------------------|
|
|  E  E  E   E    +E   E  E  E    +E   E  Q       +E   Q.
|------------------------------|-------------------------------------|
|-----------15---(15)----15-14-|-(14)----14------(14)-17-------------|
|-------14---------------------|-------------------------------------|
|----14---------------14----11-|-(11)-14-----------------------------|
|-12---------------------------|-------------------------------------|
|------------------------------|-------------------------------------|


              Bb5       C5
   Q   E  E    Q.        E    +E  E Q       e   S S  E  E
   |   |  |    |         |     |  | |       |   | |  |  |
   o   o  o    /         /     /  o o       o   o o  o  o

   Q   E  S S  E   Q     E    +E  E E S S   E   E    E  E
|--1---1--1-1------------0-|--(0)---0---0---0--------0----|
|--3---3--3-3--3---3-----1-|--(1)---1-1-1---1--------1--0-|
|--2---2--2-2--2---2-----0-|--(0)-0-0-0-0---0---0----0--0-|
|--3---3--3-3--3---3-----2-|--(2)-2-2-2-----2---2----2--0-|
|--1---1-------1---1-----3-|--(3)-3-3-------3---3----3----|
|--------------------------|------------------------------|
|
| Gtr V
|  Q.     E    E   E  E  E    +H           +E   E    E  E
|-13-----------------------|---------------------------15-|
|-15-----------------15-13-|-(13)---------(13)------------|
|-15--------------15----14-|-(14)---------(14)------12----|
|-------------15-----------|-------------------14---------|
|--------17----------------|------------------------------|
|--------------------------|------------------------------|


                        D5
   E  E  E  E    E  E E  E    +H              +E  E.   S E
   |  |  |  |    |  | |  |     |               |  |    | |
   o  o  o  o    o  o o  /     /               /  /    o o

   Q     E  S S  Q    E  E     E   E E.    S   E  E  E   E
|------------------------1-|---1-----1---------------1---0-|
|--1-----1--1-1--1----1--3-|---3---3-3-----3---3--3--3---0-|
|--2-----2--2-2--0----0--2-|---2---2-2-----2---2--2--2---0-|
|--3-----3--3-3--2----2--0-|---0---0-0-----0---0--0--0---0-|
|--3-----3--3-3--3----3----|-------------------------------|
|--1-----1--1-1------------|-------------------------------|
|
|  E  E  E  E    Q.      E    +E   Q     E    +H
|-17-----------------------|-------------------------------|
|-18----18------17------15-|-(15)-------13---(13)----------|
|----17----17---17------14-|-(14)-14-----------------------|
|-15------------14---------|-------------------------------|
|--------------------------|-------------------------------|
|--------------------------|-------------------------------|


  Gm                         GmIII(type 2)
    H.              Q          H.                   +E  E
    |               |          |                     |
    /               x          /                     /

    Q   E S S  e  E E  S S     Q     E  S S   E   E  E  S S
|---3---3-----------3------|---3-----3---------------3------|
|---3---3-3-3-------3------|---3-----3--3-3----------3------|
|---3---3-3-3-------3--3-3-|---3-----3--3-3----------3--3-3-|
|---5---5-5-5--5--5-5--5-5-|---5-----5--5-5---5---5--5--5-5-|
|---5----------5--5-5--5-5-|---5--------------5---5--5--5-5-|
|---3----------3--3-3--3-3-|---3--------------3---3--3--3-3-|
|
|   H          Q.      E      +E   Q    E    +E   Q     E
|--------------------------|--------------------------------|
|-^11---------10------13---|-(13)-11---10---(10)-11----10---|
|-^12----------------------|--------------------------------|
|-^12----------------------|--------------------------------|
|--------------------------|--------------------------------|
|--------------------------|--------------------------------|


  A5                                              Dmadd9
   E  E  Q        +E   E  E  E    +H     E Q  E   W          +W
   |  |  |         |   |  |  |     |     | |  |   |           |
   /  o  o         o   o  o  o     o     x /  x   /           /

   Q     E.    S   E   Q     E    +W              W          +W
|--------0-------------0-----0-|--(0)-----------|-0--------|-(0)----*|
|--3-----3-----3-------3-----2-|--(2)-----------|-6--------|-(6)----*|
|--0-----0-----0---0---0-----0-|--(0)-----------|-7--------|-(7)----*|
|--2-----2-----2---2---2-----2-|--(2)-----------|-7--------|-(7)----*|
|--0-----0---------0---0-----0-|--(0)-----------|-5--------|-(5)----*|
|------------------------------|----------------|----------|--------*|
|
|  E  E  E   E    +E   E  E  E    +W              W           W
|------------------------------|----------------|----------|--------*|
|-----------15---(15)----15-17-|-(17)-----------|----------|--------*|
|-------14---------------------|----------------|----------|--------*|
|----14---------------14----11-|-(11)-----------|----------|--------*|
|-12---------------------------|----------------|----------|--------*|
|------------------------------|----------------|----------|--------*|


Duration Legend
---------------
W - whole; H - half; Q - quarter; E - 8th; S - 16th; T - 32nd; X - 64th; a - acciaccatura
+ - note tied to previous; . - note dotted; .. - note double dotted
Uncapitalized letters represent notes that are staccato (1/2 duration)
Irregular groupings are notated above the duration line
Duration letters will always appear directly above the note/fret number it represents the
duration for.  Duration letters with no fret number below them represent rests.  Multi-
bar rests are notated in the form Wxn, where n is the number of bars to rest for.  Low
melody durations appear below the staff

Tablature Legend
----------------
 h   - hammer-on
 p   - pull-off
 b   - bend
 pb  - pre-bend
 r   - bend release (if no number after the r, then release immediately)
 /\  - slide into or out of (from/to "nowhere")
 s   - legato slide
 S   - shift slide
  - natural harmonic
[n]  - artificial harmonic
n(n) - tapped harmonic
 ~   - vibrato
 tr  - trill
 T   - tap
 TP  - trem. picking
 PM  - palm muting
\n/  - tremolo bar dip; n = amount to dip
 \n  - tremolo bar down
 n/  - tremolo bar up
/n\  - tremolo bar inverted dip
 =   - hold bend; also acts as connecting device for hammers/pulls
   - volume swell (louder/softer)
 x   - on rhythm slash represents muted slash
 o   - on rhythm slash represents single note slash

Misc Legend
-----------
 |  - bar
||  - double bar
||o - repeat start
o|| - repeat end
*|  - double bar (ending)
 :  - bar (freetime)
 $  - Segno
 &  - Coda
Tempo markers -  = BPM(8/16=s8/s16), where s8 = swing 8ths, s16 = swing 16ths    

Added On December 16th, 2013

SHARE

Comments

blog comments powered by Disqus

VERSIONS

ADVERTISEMENT