Stephen Lynch album picture

Love Song Tab Chords

Stephen Lynch Tabs

0 tablature chords and 2 guitar tabs | added: December 16, 2013

362 hits

Versions

guitar tabs

More tabs for Love Song @ 911Tabs
            e(-----------4---------------)
b(------5-4----5-------5-7---)
g(---------------4---------4-)
d(----4-------------4--------)
a(--2------------------------)
E(---------------------------)

e(-----------4-------6-----)
b(------5-4----5-----7-----)
g(---------------4---6-----)
d(----4------------4-------)
a(--2----------------------)
E(-------------------------)

    If I had a hammer..I'd build a house for two
e(---------------------------------------------)
b(--5----------4-------5---------------------4-)
g(--4----------4-------4---------------------4-)
d(--4----------4-------4---------------------4-)
a(--2----------2-------2---------------------2-)
E(---------------------------------------------)

    And if i had a sailing ship..I'd take a trip with you
e(------------------------------------------------------)
b(--5--------------4------------------------------------)
g(--4--------------4-------------4--------------------6-)
d(--4--------------4-------------4--------------------4-)
a(--2--------------2-------------2--------------------4-)
E(------------------------------------------------------)

    If I had a poet's hand..I'd write a verse for thee
e(--------------------------------------------------)
b(--5-----------------4--------5------------------4-)
g(--4-----------------4--------4------------------4-)
d(--4-----------------4--------4------------------4-)
a(--2-----------------2--------2------------------2-)
E(--------------------------------------------------)

    And if I had a sailing ship..I'd take a trip with you
e(------------------------------------------------------)
b(------5-----------4-----------------------------------)
g(------4-----------4----------------4----------------6-)
d(------4-----------4----------------4----------------4-)
a(------2-----------2----------------2----------------4-)
E(------------------------------------------------------)

    But I don't have a hammer..And I don't have a ship
e(--------------------------------------------------)
b(--------5------------4-------------5------------4-)
g(--------4------------4-------------4------------4-)
d(--------4------------4-------------4------------4-)
a(--------2------------2-------------2------------2-)
E(--------------------------------------------------)

    So I can't buid a house..And we can't take a trip
e(-------------------------------------------------)
b(-------5------------4----------------------------)
g(-------4------------4-------------4------------6-)
d(-------4------------4-------------4------------4-)
a(-------2------------2-------------2------------4-)
E(-------------------------------------------------)


    And I'll never be a poet..nor have the painter's grace
e(--------------------------------------------------)
b(--------5------------4-------------5------------4-)
g(--------4------------4-------------4------------4-)
d(--------4------------4-------------4------------4-)
a(--------2------------2-------------2------------2-)
E(--------------------------------------------------)

    So I'll never write your verse..nor emortalize your face
e(-------------------------------------------------)
b(-------5------------4----------------------------)
g(-------4------------4-------------4------------6-)
d(-------4------------4-------------4------------4-)
a(-------2------------2-------------2------------4-)
E(-------------------------------------------------)

And also I have herpies.

e(------4-------6-------7-)
b(--5-4---5-------7-----4-)
g(--4-4-----4-------6---4-)
d(------------4-------4-4-)
a(------------------------)
E(------------------------)
    

Comments

blog comments powered by Disqus
tablature chords guitar tabs

Tabondant

Links

Share With Friends

Share to Facebook Share to Twitter Share to MySpace Share to Delicious More...