The Buttertones Tabs

Gravediggin tab

1 versions

TAB

            x[Intro]
   
  PM PM PM PM PM PM PM PM PM PM PM     Em   G  Am   G  Em   G  Am   G  Em   PM PM PM PM PM PM PM PM PM PM PM
e|--------------------------------------0---3---5---3---0---3---5---3---0------------------------------------|
B|--------------------------------------0---3---5---3---0---3---5---3---0------------------------------------|
G|--------------------------------------0---4---5---4---0---4---5---4---0------------------------------------|
D|-----------------2-2-1-1--------------2---5---7---5---2---5---7---5---2-------------------2-2-1-1----------|
A|---------2-2-1-1---------1-1-2-2-x12--2---5---7---5---2---5---7---5---2-----------2-2-1-1--------1-1-2-2-x4|
E|-0-0-3-3------------------------------0---3---5---3---0---3---5---3---0---0-0-3-3--------------------------|
     
     N  N  N   N  N  N  N  N  N  N   N  N  N N N N  N  N  N  Em   G  Am   G  Em   G  Am   G  Em
e|------------------------------------------------------------0---3---5---3---0---3---5---3---0------|
B|---17-19-19b-19-17-13-12-17-19-19b-19-17-8-7-8-12-13-12-8---0---3---5---3---0---3---5---3---0------|
G|------------------------------------------------------------0---4---5---4---0---4---5---4---0------|
D|------------------------------------------------------------2---5---7---5---2---5---7---5---2------|
A|------------------------------------------------------------2---5---7---5---2---5---7---5---2------|
E|------------------------------------------------------------0---3---5---3---0---3---5---3---0------|


[Verse]

e|----------------------------------------------------------------------------------|
B|-------------------------------------12-10-13-12-10-12----------------------------|
G|---9-4-5-5\2-5\4-9-9\4-4/5-5\2-5\4-9-------------------9-9\4-4/5-5\2-5\4----------|
D|----------------------------------------------------------------------------------|
A|----------------------------------------------------------------------------------|
E|----------------------------------------------------------------------------------|


[Chorus]
 
    PM PM PM PM PM PM PM PM PM PM PM PM PM PM PM PM PM PM PM PM PM PM PM PM PM
e|----------------------------------------------------------------------------------|
B|---12-12-12-12---------12-12-12-12---------8-8-8-8-7-7-7-7-8-8-8-8-7-7-8-8-x2-----|
G|---------------9-9-9-9-------------9-9-9-9----------------------------------------|
D|----------------------------------------------------------------------------------|
A|----------------------------------------------------------------------------------|
E|----------------------------------------------------------------------------------|


[Break]

e|---------------------------------------------------------------------------|
B|---------------------------------------------------------------------------|
G|---9-9\4-4/5-5\2-5\4-9-9\4-4/5-5\2-5\4-------------------------------------|
D|---------------------------------------------------------------------------|
A|---------------------------------------------------------------------------|
E|---------------------------------------------------------------------------|


[Verse 2]
                                            
e|------------------------------------------------|
B|-----12-10-13-12-10-12--------------------------|
G|---9-------------------9-9\4-4/5-5\2-5\4--------|
D|------------------------------------------------|
A|------------------------------------------------|
E|------------------------------------------------|

   
[Chorus 2]

     PM PM PM PM PM PM PM PM PM PM PM PM PM PM PM PM PM PM PM PM PM PM PM PM 
e|---------------------------------------------------------------------------------|
B|---12-12-12-12---------12-12-12-12---------8-8-8-8-7-7-7-7-8-8-8-8-7-7-8-8-x2----|
G|---------------9-9-9-9-------------9-9-9-9---------------------------------------|
D|---------------------------------------------------------------------------------|
A|---------------------------------------------------------------------------------|
E|---------------------------------------------------------------------------------|
         
[Outro]
    
         N N  N  N  N  N  N  N  N  N  N  N    PM PM PM PM PM PM PM PM PM PM PM PM PM PM PM PM PM    Em        
e|---------------------------------------------------------------------------------------------------0------|
B|---------------------------------------------------------------------------------------------------0------|
G|---9-9-9-10-11-12-13-14-15-16-17-18-19-20----------------------------------------------------------0------|
D|------------------------------------------------------------2-2-1-1--------------------------------2------|
A|----------------------------------------------------2-2-1-1---------1-1-2-2-x3---------2-2-1-1-----2------|
E|--------------------------------------------0-0-3-3----------------------------0-0-3-3---------0---0------|



************************************

| x   Dead note
| PM  Palm mute
| b   Bend
| /   Slide up
| \   Slide down

************************************    

Added On August 12th, 2017

SHARE

Comments

blog comments powered by Disqus

ADVERTISEMENT