The Raconteurs Tabs

Blackjack Illywhack

1 versions

TAB

            Blackjack Illywhack Tab by The Raconteurs


I think This is 80% correct so if you have a better version post it

E---------------------------|
B-(9p8h9)-99-99-77-77-5p4-5-| (do this at beginnig of song only)
G---------------------------| x4 then lyrics start
D---------------------------|
A---------------------------|
E---------------------------|

E--------------------------|
B-99-99-77-77-5p4-5--------|
G--------------------------| x5
D--------------------------|
A--------------------------|
E--------------------------|

                      G        G#          Gm7     G7
...Get things my way, In my defense I can only retard


E--------------------------|
B-99-99-77-77-5p4-5--------|
G--------------------------| x1
D--------------------------|
A--------------------------|
E--------------------------|

       (chorus)

G           G#          Gm7      G7       (start the riff here)
  Blackjack,  Illywhack,   This card makes no moves

E--------------------------|
B-99-99-77-77-5p4-5--------|
G--------------------------| x4
D--------------------------|
A--------------------------|
E--------------------------|


  G          G#        Gm7       G7
This one the merciless second to none

E--------------------------|
B-99-99-77-77-5p4-5--------|
G--------------------------| x1
D--------------------------|
A--------------------------|
E--------------------------|

G           G#          Gm7      G7       (start the riff here)
  Blackjack,  Illywhack,   This card makes no moves


E--------------------------|
B-99-99-77-77-5p4-5--------|
G--------------------------| x2
D--------------------------|
A--------------------------|
E--------------------------|

Thats all ive got so far ill finish it when i can figure out the rest    

Added On December 12th, 2013

SHARE

Comments

blog comments powered by Disqus

ADVERTISEMENT