X Japan Tabs

Orgasm

3 versions

TAB

            Orgasm Tab by X Japan


Orgasm
	X japan
		From Blue Blood
	Tabbed by SJ (kirei_008@hotmail.com)
Tune guitar 1/2 step down
I'll add the solo soon

Intro
-------------------------------------------
-------------------------------------------
-------------------------------------------
-----5-5-----------------5-5--------5-5-3--
-7-7-3-3--7-7-3-3-5--7-7-3-3---7-7--3-3-2--
-5-5------5-5-1-1-3--5-5-------5-5---------


Verse
-------------------------------------
-------------------------------------
-------------------------------------
-------------------------------------
-7-7-7-5----7-7-7-5----5-5-2-3-5-5-5-
-5-5-----7--5-5-----7--3-3-------3-3-

Pre Chorus
------------------------------------------------------
------------------------------------------1-----------
---2------4-------------------2-----4---2---2--5-4-2--
-3---3--5---5---2------4----3---3-5---5--------P-P-P--
--------------3---3--5---5----------------------------
------------------------------------------------------

-------------------------------------------------------
-------------------------------------------------------
----2------4-------------------2---5-4-2----4---7-5-4--
--3---3--5---5---2------4----3---3--------5---5-P-P-P--
---------------3---3--5---5--------P-P-P---------------
-------------------------------------------------------

Chorus
--------------------
--------------------
--------------------
--------------------	×2
-7---------------7--
---8--7-8-7--5-3-5--


wakarikitta ashita ni obieru (Break free !)
hi no kieta kokoro no kabe kowarezu ni (Crash you !)

omae wa motomete irun darou
shigeki ni dakareta Making love
karada ni nuno-kire yosoottemo tengoku e ikenai ze

unuboreta aitsu ni shibarare (Break free !)
karada o kakemeguru chi ga sakebu (Crash you !)

tokidasu kotoba ni tsuma o togu
kizuna ni makareta Pleasure of mind
soita sabaku de odottemo
toki no ori yaburenai ze

Get to ORGASM Get to ORGASM karada tokase (Just Like Death)
Get to ORGASM Get to ORGASM fukaku tsuki-sase (Just Like Death)

Get to ORGASM Get to ORGASM karada tokase (Just Like Death)
Get to ORGASM Get to ORGASM fukaku tsuki-sase (Just Like Death)    

Added On December 16th, 2013

SHARE

Comments

blog comments powered by Disqus

VERSIONS

ADVERTISEMENT