Exies album picture

Dose Tab Chords

Exies Tabs

0 tablatura acordes y 1 guitarra tabs | added: December 16, 2013

117 hits


More tabs for Dose @ 911Tabs
            intro x4
d(-----------------------)
a(-----------------------)
f(----5------------------)
c(------4---3-0-3--3-0-5-)
g(--5--------------------)
C(--0-0-0---3-0-3--3-0-5-)

first verse x3
d(--------------)
a(--7-7-7-78888-)
f(--6-6-6-67777-)
c(--4-4-4-45555-)
g(--4-4-4-45555-)
C(--4-4-4-45555-)

fist verse continued
d(----------)
a(----------)
f(----------)
c(--3-5-3-4-)
g(--3-5-3-4-)
C(--3-5-3-4-)

fist verse continued x3
d(--------------)
a(--7-7-7-78888-)
f(--6-6-6-67777-)
c(--4-4-4-45555-)
g(--4-4-4-45555-)
C(--4-4-4-45555-)

fist verse continued
d(----------)
a(----------)
f(----------)
c(--3-5-3-4-)
g(--3-5-3-4-)
C(--3-5-3-4-)

fist verse continued x3
d(--------------)
a(--7-7-7-78888-)
f(--6-6-6-67777-)
c(--4-4-4-45555-)
g(--4-4-4-45555-)
C(--4-4-4-45555-)

fist verse continued
d(----------)
a(----------)
f(----------)
c(--3-5-3-4-)
g(--3-5-3-4-)
C(--3-5-3-4-)

fist verse continued x3
d(--------------)
a(--7-7-7-78888-)
f(--6-6-6-67777-)
c(--4-4-4-45555-)
g(--4-4-4-45555-)
C(--4-4-4-45555-)

fist verse continued
d(----------)
a(----------)
f(----------)
c(--3-5-3-4-)
g(--3-5-3-4-)
C(--3-5-3-4-)

play this repeatedly for the lead
d(----)
a(----)
f(----)
c(--7-)
g(----)
C(----)

pre-chorus
d(-------------------)
a(-------------------)
f(--3-3/55-5-5-5-5/7-)
c(--3-3/55-5-5-5-5/7-)
g(--1-1/33-3-3-3-3/5-)
C(-------------------)

chours x4
d(-------------------)
a(-------------------)
f(--7--7-5-3-7-5-5/7-)
c(--7--7-5-3-7-5-5/7-)
g(--5--5-3-1-5-3-3/5-)
C(-------------------)

second verse
d(--------------)
a(--7-7-7-78888-)
f(--6-6-6-67777-)
c(--4-4-4-45555-)
g(--4-4-4-45555-)
C(--4-4-4-45555-)

second verse continued
d(----------)
a(----------)
f(----------)
c(--3-5-3-4-)
g(--3-5-3-4-)
C(--3-5-3-4-)

second verse continued x3
d(--------------)
a(--7-7-7-78888-)
f(--6-6-6-67777-)
c(--4-4-4-45555-)
g(--4-4-4-45555-)
C(--4-4-4-45555-)

second verse continued
d(----------)
a(----------)
f(----------)
c(--3-5-3-4-)
g(--3-5-3-4-)
C(--3-5-3-4-)

second verse continued x3
d(--------------)
a(--7-7-7-78888-)
f(--6-6-6-67777-)
c(--4-4-4-45555-)
g(--4-4-4-45555-)
C(--4-4-4-45555-)

second verse continued
d(----------)
a(----------)
f(----------)
c(--3-5-3-4-)
g(--3-5-3-4-)
C(--3-5-3-4-)

second verse continued x3
d(--------------)
a(--7-7-7-78888-)
f(--6-6-6-67777-)
c(--4-4-4-45555-)
g(--4-4-4-45555-)
C(--4-4-4-45555-)

second verse continued
d(----------)
a(----------)
f(----------)
c(--3-5-3-4-)
g(--3-5-3-4-)
C(--3-5-3-4-)

repeat this for lead on the second verse.
d(------------------------)
a(------------------------)
f(--77777777777777-10p9p7-)
c(------------------------)
g(------------------------)
C(------------------------)

then repeat original lead
d(----)
a(----)
f(----)
c(--7-)
g(----)
C(----)

pre-chorus
d(-------------------)
a(-------------------)
f(--3-3/55-5-5-5-5/7-)
c(--3-3/55-5-5-5-5/7-)
g(--1-1/33-3-3-3-3/5-)
C(-------------------)

chours x4
d(-------------------)
a(-------------------)
f(--7--7-5-3-7-5-5/7-)
c(--7--7-5-3-7-5-5/7-)
g(--5--5-3-1-5-3-3/5-)
C(-------------------)

fill x3
d(--------------)
a(--7-7-7-78888-)
f(--6-6-6-67777-)
c(--4-4-4-45555-)
g(--4-4-4-45555-)
C(--4-4-4-45555-)

fill continued
d(----------)
a(----------)
f(----------)
c(--3-5-3-4-)
g(--3-5-3-4-)
C(--3-5-3-4-)

bridge     x3
d(-------------------)
a(-------------------)
f(-------------------)
c(-------------------)
g(--------------5320-)
C(--532075305320-----)
  pm................

bridge continued
d(------------------)
a(------------------)
f(------------------)
c(--532075305320----)
g(--532075305320532-)
C(--532075305320----)

bridge continued   x3
d(----5---5-------------)
a(----5---5-------------)
f(--4---4----7----------)
c(--4---4----7-5---5--7-)
g(--2---2----5-5---5--7-)
C(-------------5---5--7-)

bridge continued 
d(----------------------------------------------)
a(----------------------------------------------)
f(--4-4-4-4-2-2-2-2-----------------------------)
c(--4-4-4-4-2-2-2-2-5-555-5-555--3-0-3-0--0-3-5-)
g(--2-2-2-2-0-0-0-0-5-555-5-555--3-0-3-0--0-3-5-)
C(------------------5-555-5-555--3-0-3-0--0-3-5-)
                    pm...   ...

chours x8
d(-------------------)
a(-------------------)
f(--7--7-5-3-7-5-5/7-)
c(--7--7-5-3-7-5-5/7-)
g(--5--5-3-1-5-3-3/5-)
C(-------------------)

outro x3
d(--------------)
a(--7-7-7-78888-)
f(--6-6-6-67777-)
c(--4-4-4-45555-)
g(--4-4-4-45555-)
C(--4-4-4-45555-)
    

Comentarios

blog comments powered by Disqus
tablatura acordes guitarra tabs

Tabondant

Links

Share con amigos

Share to Facebook Share to Twitter Share to MySpace Share to Delicious More...