Washya album picture

Away We Go Tab Chords

Washya Tabs

0 tablatura acordes y 1 guitarra tabs | added: December 16, 2013

4 hits


More tabs for Away We Go @ 911Tabs
            -----------------------------------------------------------------------------
                          Away We Go - Washya
-----------------------------------------------------------------------------
Tuning: Drop D (EBGDAD)
Intro/Verses
E|--------------------------------------------|
B|--------------------------------------------|
G|------4--------2---2/4--------4---4---------|
D|----2---2----4---4--------2/4---2---2-------|
A|--------------------------------------5-4-2-|
D|-00-------00-----------22-------------------|

Chorus
E|-------------------------------------------------|
B|-------------------------------------------------|
G|-------------------------------------------------|
D|--------------------555-33----------------777-55-|
A|-4444-2222-4444-666-333-11-2222-4444-0000-555-33-|
D|-4444-2222-4444-666--------2222-4444-0000--------|

Solo
E|-----------------------------------------------------------------------|
B|----------------------------------------------------------6---6h8------|
G|----------2-4-2---2/7p5p3----------------2---2h4p2h4/5-/7---7-----7-7~-|
D|--------4-------4---------5~---------2-4---4---------------------------|
A|-----------------------------------------------------------------------|
D|-00-0-00---------------------00-0-00-----------------------------------|

        <                   play twice                        >
E|----------------6------------6------------6------------8p6-----|
B|------------6h8---8p6----6h8---8p6----6h8---8p6----6h8-----7~~-|
G|---------7b-----------7b-----------7b-----------7b-------------|
D|---------------------------------------------------------------|
A|---------------------------------------------------------------|
D|-00-0-00-------------------------------------------------------|

Tuning: Drop D (EBGDAD)
Intro/Verses
E|--------------------------------------------|
B|--------------------------------------------|
G|------4--------2---2/4--------4---4---------|
D|----2---2----4---4--------2/4---2---2-------|
A|--------------------------------------5-4-2-|
D|-00-------00-----------22-------------------|

Chorus
E|-------------------------------------------------|
B|-------------------------------------------------|
G|-------------------------------------------------|
D|--------------------555-33----------------777-55-|
A|-4444-2222-4444-666-333-11-2222-4444-0000-555-33-|
D|-4444-2222-4444-666--------2222-4444-0000--------|
    

Comentarios

blog comments powered by Disqus
tablatura acordes guitarra tabs

Tabondant

Links

Share con amigos

Share to Facebook Share to Twitter Share to MySpace Share to Delicious More...