Freaky Age album picture

John Whats The Use Tab Chords

Freaky Age Tabs

0 tablature accords et 1 partitions | added: December 16, 2013

2 hits

Video

Please Wait... Video is loading!
            Freaky Age-John what’s the use
Song: John what’s the use
Album: Every morning breaks out
Artist: Freaky Age
Tuning: Standard
Tabbed By: Tim Van de Voorde

Gtr I (E A D G B E) - 'Electric guitar-Lenny’
Gtr II (E A D G B E) - ‘Electric guitar-Mathias'


“…anyway, and I”
Gtr 1 ~Palm muted~
   G      Em     C
E|-3------7------8--|
B|-3------8------8--|
G|-4------9------9--|  Listen to the song to get the rhythm!
D|-5------9------10-|
A|-5------7------10-|
E|-3-------------8--|


“I don’t believe his history”
Gtr 1 ~Palm muted~
   G        Em      C
E|-3--------7-------8----|
B|-3--------8-------8----|
G|-4--------9-------9----|  (2x)
D|-5--------9-------10---|
A|-5--------7-------10---|
E|-3----------------8----|

Gtr II
E|----10~----------------|
B|------------12~--------|
G|-12-------9--------12~-|  (2x)
D|-----------------10----|
A|-----------------------|
E|-----------------------|


Break
Gtr I
E|-3--------------------------7-----------8----|
B|-3--------------------------8-----------8----|
G|-4--------------------------9-----------9----|  (2x)
D|-5--------------------------9-----------10---|
A|-5--------------------------7-----------10---|
E|-3--------------------------------------8----|

Gtr II
E|---10-------------10----------------------------------|
B|-----------------------------12-----------------------|
G|-12--12-11---11/12--12-11---9--9-9h12-----12----------|  (2x)
D|----------------------------------------10--10-10h12--|
A|------------------------------------------------------|
E|------------------------------------------------------|


“Days we passed”
Gtr I
E|-3--------------------------7-----------8----|
B|-3--------------------------8-----------8----|
G|-4--------------------------9-----------9----|  (2x)
D|-5--------------------------9-----------10---|
A|-5--------------------------7-----------10---|
E|-3--------------------------------------8----|

Gtr II
E|---------------------------------------------|
B|---------------------------------------------|
G|-12~-------/16~--------14---9----------h11---|  (2x)
D|---------------------------------------------|
A|---------------------------------------------|
E|---------------------------------------------|


“Why he had to try”
Gtr I
E|-3--------------------------7-----------8----|
B|-3--------------------------8-----------8----|
G|-4--------------------------9-----------9----|  (2x)
D|-5--------------------------9-----------10---|
A|-5--------------------------7-----------10---|
E|-3--------------------------------------8----|

Gtr II
E|---10-------------10----------------------------------|
B|-----------------------------12-----------------------|
G|-12--12-11---11/12--12-11---9--9-9h12-----12----------|  (2x)
D|----------------------------------------10--10-10h12--|
A|------------------------------------------------------|
E|------------------------------------------------------|


“John what’s the use, the sound is missing”
Gtr I & II
E|-3----10----7----8--|
B|-3----10----8----8--|
G|-4----11----9----9--|  (2x)
D|-5----12----9----10-|
A|-5----12----7----10-|
E|-3----10---------8--|


Break
Gtr I
E|-3--------------------------7-----------8----|
B|-3--------------------------8-----------8----|
G|-4--------------------------9-----------9----|
D|-5--------------------------9-----------10---|
A|-5--------------------------7-----------10---|
E|-3--------------------------------------8----|

Gtr II
E|---10-------------10----------------------------------|
B|-----------------------------12-----------------------|
G|-12--12-11---11/12--12-11---9--9-9h12-----12----------|
D|----------------------------------------10--10-10h12--|
A|------------------------------------------------------|
E|------------------------------------------------------|

“Explain to him”
Gtr I
E|-3--------------------------7-----------8----|
B|-3--------------------------8-----------8----|
G|-4--------------------------9-----------9----|  (2x)
D|-5--------------------------9-----------10---|
A|-5--------------------------7-----------10---|
E|-3--------------------------------------8----|

Gtr II
E|---------------------------------------------|
B|---------------------------------------------|
G|-12~-------/16~--------14---9----------h11---|  (2x)
D|---------------------------------------------|
A|---------------------------------------------|
E|---------------------------------------------|


“I feel like in a history book”
Gtr I
E|-3--------------------------7-----------8-------------|
B|-3--------------------------8-----------8-------------|
G|-4--------------------------9-----------9-------------|  (2x)
D|-5--------------------------9-----------10------------|
A|-5--------------------------7-----------10------------|
E|-3--------------------------------------8-------------|

Gtr II
E|---10-------------10----------------------------------|
B|-----------------------------12-----------------------|
G|-12--12-11---11/12--12-11---9--9-9h12-----12----------|  (2x)
D|----------------------------------------10--10-10h12--|
A|------------------------------------------------------|
E|------------------------------------------------------|

“John what’s the use, the sound is missing”
Gtr I & II
E|-3----10----7----8--|
B|-3----10----8----8--|
G|-4----11----9----9--|  (2x)
D|-5----12----9----10-|
A|-5----12----7----10-|
E|-3----10---------8--|


SOLO
Gtr I
E|-3---------10----------7---8--|--3--------------10--------------7--8--|
B|-3---------10----------8---8--|--3--------------10--------------8--8--|
G|-4---------11----------9---9--|--4--------------11--------------9--9--|
D|-5---------12----------9---10-|--5--------------12--------------9--10-|
A|-5---------12----------7---10-|--5--------------12--------------7--10-|
E|-3---------10--------------8--|--3--------------10-----------------8--|

Gtr II
E|----------------------------------------------------------------------|
B|----------------------------------------------------------------12----|
G|---------------------------------14-12----------/16-14----------14b16-|
D|-/9-9-7-9-/12-10-9-7-7--9-5-----------14-12-14--------16-14-16--------|
A|---------------------------7-5----------------------------------------|
E|----------------------------------------------------------------------|

Gtr I & II
E|-10--10--10---9----8--|
B|-10--10--10---9----8--|
G|-11--11--11---10---9--|
D|-12--12--12---11---10-|
A|-12--12--12---11---10-|
E|-10--10--10---9----8--|


“John what’s the use, the sound is missing”
Gtr I
E|-3---------10----------7---8---|
B|-3---------10----------8---8---|
G|-4---------11----------9---9---|  (2x)
D|-5---------12----------9---10--|
A|-5---------12----------7---10--|
E|-3---------10--------------8---|

Gtr II
E|-------------------------------|
B|-------------------------------|
G|-------------------------------|  (2x)
D|-/9-9-7-9-/12-10-9-7-7--9-5----|
A|---------------------------7-5-|
E|-------------------------------|


Tabbed by Tim Van de Voorde.    

Lecteur de partition pour ce morceau:

Commentaires

blog comments powered by Disqus
tablature accords partitions

Tabondant

Links

Partager avec tes potes

Share to Facebook Share to Twitter Share to MySpace Share to Delicious More...