Weezer Tabs

American Gigolo

2 versions

TAB

            American Gigolo Tab by Weezer


TABBED BY - HIGH VOLTAGE

Tuning:Standard(eBGDAE)

Intro:(Play 1 time)

e|------------------------|---------------------------|
B|------------------------|---------------------------|
G|--------------3-3-4-4-5-|--------------3-3-4-4-5--6-|
D|-0-3-3-4-4-5--3-3-4-4-5-|-0-3-3-4-4-5--3-3-4-4-5--6-|
A|-0-3-3-4-4-5--1-1-2-2-3-|-0-3-3-4-4-5--1-1-2-2-3--4-|
E|-0-1-1-2-2-3------------|-0-1-1-2-2-3---------------|

Verse:Palm-muted
  play 3 times then                             slowly lift off of
                                                palm-muting here.
e|---------------|----------------------------------------------|
B|---------------|----------------------------------------------|
G|-------3-4-5-6-|-------------------------1/-3-----------------|
D|-3-4-5-3-4-5-6-|-3-3-3-3-3-3-3-3-3-3-3-3------3-3-3-3-3-3-3-3-|
A|-3-4-5-1-2-3-4-|-3-3-3-3-3-3-3-3-3-3-3-3------3-3-3-3-3-3-3-3-|
E|-1-2-3---------|-1-1-1-1-1-1-1-1-1-1-1-1------1-1-1-1-1-1-1-1-|

Chorus:Play 4 times

e|---------------------|
B|---------------------|
G|---------------------|
D|-5-5-5-5-5-5/-7-7/-8-|
A|-5-5-5-5-5-5/-7-7/-8-|
E|-3-3-3-3-3-3/-5-5/-6-|

Thats it, I hope so! Then repeat everything.    

Added On December 16th, 2013

SHARE

Comments

blog comments powered by Disqus

VERSIONS

ADVERTISEMENT