TAB

            Revolve Tab by 30 Seconds To Mars


R-Evolve by 30 Seconds to Mars
Tabbed by: Chicken Dumplings (chckndmplngs)
Tuning: 1 whole step down (D G C F A d)


Intro
d|---------------------------------------------------------------------------|
A|---------------------------------------------------------------------------|
F|---------------------------------------------------------------------------|
C|-----0-------0-------0-------0-------0-------0-------0---------------------|
G|---9---9---9---9---7---7---7---7---5---5---5---5---5---5---5---4-----------|
D|-7-------7-------5-------5-------3-------3-------3-------3---2-------------|

d|---------------------------------------------------------------------------|
A|---------------------------------------------------------------------------|
F|---------------------------------------------------------------------------|
C|-----0-------0-------0-------0-------4-------4-------4-------4-------------|
G|---9---9---9---9---7---7---7---7---5---5---5---5---5---5---5---5-----------|
D|-7-------7-------5-------5-------3-------3-------3-------3-----------------|

Verse x2
d|---------------------------------------------------------------------------|
A|---------------------------------------------------------------------------|
F|---------------------------------------------------------------------------|
C|-----0-------0-------0-------0-------0-------0-------0---------------------|
G|---9---9---9---9---7---7---7---7---5---5---5---5---5---5---5---4-----------|
D|-7-------7-------5-------5-------3-------3-------3-------3---2-------------|

d|---------------------------------------------------------------------------|
A|---------------------------------------------------------------------------|
F|---------------------------------------------------------------------------|
C|-----0-------0-------0-------0-------4-------4-------4-------4-------------|
G|---9---9---9---9---7---7---7---7---5---5---5---5---5---5---5---5-----------|
D|-7-------7-------5-------5-------3-------3-------3-------3-----------------|

Chorus
d|---------------------------------------------------------------------------|
A|---------------------------------------------------------------------------|
F|------------------7777777777777-6666666666666666666-7777777777777777-------|
C|-7777777777777777-7777777777777-6666666666666666666-7777777777777777-------|
G|-7777777777777777-5555555555555-4444444444444444444-5555555555555555-------|
D|-5555555555555555----------------------------------------------------------|
        (16)            (13)             (19)              (16)    

Added On December 16th, 2013

SHARE

Comments

blog comments powered by Disqus

VERSIONS

ADVERTISEMENT