36 CrazyFists Tabs

Left Hand Charity

5 versions

TAB

            Left Hand Charity Tab by 36 Crazyfists


Drop C Tuning (Drop D and One Whole Step Down)

D-----------------------------------------
A-----------------------------------------
F-----------------------------------------   x6
C------4--6--7---6---------2--4--5---4----
G----4--4--4---4---4-----2--2--2---2---2--
C--4-------------------2------------------

D---------------------------
A---------------------------
F---------------------------   x2
C--44444444-44444444--------
G--44444444-44444444--------
C--44444444p22222222--------

D-----------------------------------------
A-----------------------------------------
F-----------------------------------------   x6
C------4--6--7---6---------2--4--5---4----
G----4--4--4---4---4-----2--2--2---2---2--
C--4-------------------2------------------

D---------------------------
A---------------------------
F---------------------------   x4
C--44444444-44444444--------
G--44444444-44444444--------
C--44444444p22222222--------

D-----------------------------------------
A-----------------------------------------
F-----------------------------------------   x4
C------4--6--7---6---------2--4--5---4----
G----4--4--4---4---4-----2--2--2---2---2--
C--4-------------------2------------------

A classroom cirlce slowly drifts on...
I knew right then I'd carve you name, so I...
Save your charity it's gone too far now as it seems

I drive by your scenery...
All the while I died that night...
Please come back, tell me it's alright

And save your charity it's gone too far now as it seems...
Little boys that misbehave

And I want to look you in your eye...
    I want to look you in your eye...
      Want to look you in your eye
    I want to look you in your eye    

Added On December 16th, 2013

SHARE

Comments

blog comments powered by Disqus