A Perfect Circle Tabs

Annihilation

1 versions

TAB

            A Perfect Circle: Annihilation

Standard Tuning

Repeat throughout:

E------------------------------|
A------------------------------|
D--0---------3-0---0-------3-2-|
G----2---2-0---------0---0-----|
B------------------------------|
e------------------------------|

E------------------------------|
A------------------------------|
D--0---------3-0---0-------3-2-|
G----2---2-0---------0---0-----|
B------------------------------|
e------------------------------|

E------------------------------|
A------------------3---3-------|
D--0---0-2-0---0-2-------3---0-|
G------------------------------|
B------------------------------|
e------------------------------|    

Added On December 16th, 2013

SHARE

Comments

blog comments powered by Disqus

ADVERTISEMENT