Ac Dc Tabs

Smash N Grab

1 versions

TAB

            Smash N' Grab
Ac/Dc
Black Ice

|-Angus---||
|          |
|-Malcolm-||

e|----------------------||
B|-10~~~~---------------||
G|---------7~~~~-5~~~~~-||
D|----------------------||
A|----------------------||
E|----------------------||
 |                       |x2
 |                       |
e|----------------------||
B|-3-3-3-3--------------||
G|-2-2-0-2--------------||
D|-0-0-0-0--------------||
A|----------------------||
E|----------------------||


e|-------------------|
B|-3-3-3-3--3--3-----|(Both Malcolm and Angus)
G|-2-2-2-2--0--2--2--|
D|-0-0-0-0--0--0--2--|x4
A|----------------0--|
E|-------------------|
 
e|----------------------|-------------------||
B|-10~~~~---------------|-------------------||
G|---------7~~~~-5~~~~~-|-------------------||
D|----------------------|-------------------||
A|----------------------|-------------------||
E|----------------------|-------------------||
 |                                           |x2
 |                                           |
e|----------------------|-------------------||
B|-3-3-3-3--------------|-3-3-3-3-----------||
G|-2-2-0-2--------------|-2-2-0-2-----------||
D|-0-0-0-0--------------|-0-0-0-0-----------||
A|----------------------|-------------------||
E|----------------------|-------------------||

Verse:
e|-------------------|
B|-3-3-3-3--3--3-----|
G|-2-2-2-2--0--2--2--|
D|-0-0-0-0--0--0--2--|x4
A|----------------0--|
E|-------------------|

e|-----------------------------------------------------------------|
B|---------------------------------3-3-3-3-3-3-3-3-3-3-3-3-3-3-3-3-|
G|-5-5-5-5-5-5-5-5-----------------2-2-2-2-2-2-2-2-2-2-2-2-2-2-2-2-|
D|-5-5-5-5-5-5-5-5-3-3-3-3-3-3-3-3-0-0-0-0-0-0-0-0-0-0-0-0-0-0-0-0-|
A|-3-3-3-3-3-3-3-3-3-3-3-3-3-3-3-3---------------------------------|
E|-----------------1-1-1-1-1-1-1-1---------------------------------|

Chorus:
e|----------------------------|---------------------------------|
B|-------3-3-3--3--3-3-3--3-3-|---------------------------------|
G|-2---2-2-2-2--0--0-0-2--2-2-|---------------------------------|
D|-2---2-0-0-0--0--0-0-0--0-0-|x3-5-5-5-5-5-5-5-5-5-5-5-5-5-5-5-|
A|-0---0----------------------|---5-5-5-5-5-5-5-5-5-5-5-5-5-5-5-|
E|--------------3--3-3--------|---3-3-3-3-3-3-3-3-3-3-3-3-3-3-3-|

Verse:
e|-------------------|
B|-3-3-3-3--3--3-----|
G|-2-2-2-2--0--2--2--|
D|-0-0-0-0--0--0--2--|x4
A|----------------0--|
E|-------------------|

e|-----------------------------------------------------------------|
B|---------------------------------3-3-3-3-3-3-3-3-3-3-3-3-3-3-3-3-|
G|-5-5-5-5-5-5-5-5-----------------2-2-2-2-2-2-2-2-2-2-2-2-2-2-2-2-|
D|-5-5-5-5-5-5-5-5-3-3-3-3-3-3-3-3-0-0-0-0-0-0-0-0-0-0-0-0-0-0-0-0-|
A|-3-3-3-3-3-3-3-3-3-3-3-3-3-3-3-3---------------------------------|
E|-----------------1-1-1-1-1-1-1-1---------------------------------|


Chorus:

e|----------------------------|---------------------------------|
B|-------3-3-3--3--3-3-3--3-3-|---------------------------------|
G|-2---2-2-2-2--0--0-0-2--2-2-|---------------------------------|
D|-2---2-0-0-0--0--0-0-0--0-0-|x3-5-5-5-5-5-5-5-5-5-5-5-5-5-5-5-|
A|-0---0----------------------|---5-5-5-5-5-5-5-5-5-5-5-5-5-5-5-|
E|--------------3--3-3--------|---3-3-3-3-3-3-3-3-3-3-3-3-3-3-3-|


e|----------------------|-------------------||
B|-10~~~~---------------|-------------------||
G|---------7~~~~-5~~~~~-|-------------------||
D|----------------------|-------------------||
A|----------------------|-------------------||
E|----------------------|-------------------||
 |                                           |x2
 |                                           |
e|----------------------|-------------------||
B|-3-3-3-3--------------|-3-3-3-3-----------||
G|-2-2-0-2--------------|-2-2-0-2-----------||
D|-0-0-0-0--------------|-0-0-0-0-----------||
A|----------------------|-------------------||
E|----------------------|-------------------||

Solo: (Partially Completed) If you have any add-ons, post a correction.
e|--------------------------|-------------------|
B|-------12b~-12b~----------|-15b17-13-15-------|
D|-------12b~-12b~--9-7---9-|-------------14~~\-|
D|-x\\\\----------------7---|-------------------|
A|-x\\\\--------------------|-------------------|
E|-x\\\\--------------------|-------------------|

e|-15b17-|
B|-------|That's as far as I currently got. I WILL update this.
G|-------|
D|-------|
A|-------|
E|-------|

Rhythm Guitar for Solo:
e|------------------------------------------------------------------|
B|---------------------------------3-3-3-3-3-3-3-3------------------|
G|-2-2-2-2-2-2-2-2-----------------2-2-2-2-2-2-2-2------------------|
D|-2-2-2-2-2-2-2-2-3-3-3-3-3-3-3-3-0-0-0-0-0-0-0-0-5-5-5-5-5-5-x--5-|
A|-0-0-0-0-0-0-0-0-3-3-3-3-3-3-3-3-----------------5-5-5-5-5-5-x--5-|
E|-----------------1-1-1-1-1-1-1-1-----------------3-3-3-3-3-3-x--3-|

e|----------------------------|---------------------------------------|
B|-------3-3-3--3--3-3-3--3-3-|---3-3-3-3-3-3-3-3-3-3-3-3-3-3-3-------|
G|-2---2-2-2-2--0--0-0-2--2-2-|---2-2-2-2-2-2-2-2-2-2-2-2-2-2-2-2~~~~-|
D|-2---2-0-0-0--0--0-0-0--0-0-|x3-0-0-0-0-0-0-0-0-0-0-0-0-0-0-0-2~~~~-|
A|-0---0----------------------|---------------------------------0~~~~-|
E|--------------3--3-3--------|---------------------------------------|

Chorus:
e|----------------------|-------------------||
B|-10~~~~---------------|-------------------||
G|---------7~~~~-5~~~~~-|-------------------||(There are 3 guitars in this
D|----------------------|-------------------||part...I excluded the little
A|----------------------|-------------------||solo Angus plays. I will
E|----------------------|-------------------||include it later.)**
 |                                           |x4
 |                                           |
e|----------------------|-------------------||
B|-3-3-3-3--------------|-3-3-3-3~~~~~~-----||
G|-2-2-0-2--------------|-2-2-0-2~~~~~~-----||
D|-0-0-0-0--------------|-0-0-0-0~~~~~~-----||
A|----------------------|-------------------||
E|----------------------|-------------------||    

Added On December 16th, 2013

SHARE

Comments

blog comments powered by Disqus

ADVERTISEMENT