AFI Tabs

Three And A Half

1 versions

TAB

            A Fire Inside
Three & A Half


|--0--------|-0-----------------------------------------------------|
|:-0-------:|-0-----------------------------------------------------|
|--4--------|-4-99999999--------------------------------------------|
|--2---PM---|-2-xxxxxxxx-9\7777-9999\7777-9999\7777-9999\7777/9-9\7-|
|:-2---===-:|-2-77777777-9\7777-9999\7777-9999\7777-9999\7777/9-9\7-|
|--0---0-1--|-0----------7\5555-7777\5555-7777\5555-7777\5555/7-7\5-|


VERSE
------------------------------------------------------------------|
------------------------------------------------------------------|
-------------------------------------------------------12-12-12---|
-77777-/10-99999999-10-10-10-10-10-10-10-12\10-10-10---12-12-12---|
-77777-/10-99999999-10-10-10-10-10-10-10-12\10-10-10-0-10-10-10-0-|
-55555-/-8-77777777--8--8--8--8--8--8--8-10\-8--8--8-0-10-10-10-0-|


VERSE
-------------------------------------------------------|
-------------------------------------------------------|
-------------------------------------------------------|
-777777-10\99999999--8-88-88-88-/-11-11-11-11-11-11-11-|
-777777-10\99999999--x-xx-xx-xx-/--x--x--x--x--x--x--x-|
-555555--8\77777777--6-66-66-66-/--9--9--9--9--9--9--9-|


VERSE
------------------------------------------------------------------|
------------------------------------------------------------------|
-------------------------------------------------------12-12-12---|
-77777-/10-99999999-10-10-10-10-10-10-10-12\10-10-10---12-12-12---|
-77777-/10-99999999-10-10-10-10-10-10-10-12\10-10-10-0-10-10-10-0-|
-55555-/-8-77777777--8--8--8--8--8--8--8-10\-8--8--8-0-10-10-10-0-|


VERSE
-----------------------------------------5555555-|
-----------------------------------------5555555-|
-10-10-10-10-10-10-10-9\77777777---------5555555-|
-10-10-10-10-10-10-10-9\77777777-7777777-7777777-|
--8--8--8--8--8--8--8-7\55555555-7777777-7777777-|
--8--8--8--8--8--8--8-7\55555555-5555555-5555555-|


CHORUS
|------------------------0--------------------|----------------------|
|:-----------------------0-((5555555555555))-:|----------------------|
|------------------------9-((5555555555555))--|----------------------|
|--9\7777-9999\7777-99-x-9-----harmonics------|-9\7777-9999\7777-999-|
|:-9\7777-9999\7777-99-x-7-------------------:|-9\7777-9999\7777-999-|
|--7\5555-7777\5555-77-x-0--------------------|-7\5555-7777\5555-777-|


VERSE
------------------------------------------------------------------|
------------------------------------------------------------------|
-------------------------------------------------------12-12-12---|
-77777-/10-99999999-10-10-10-10-10-10-10-12\10-10-10---12-12-12---|
-77777-/10-99999999-10-10-10-10-10-10-10-12\10-10-10-0-10-10-10-0-|
-55555-/-8-77777777--8--8--8--8--8--8--8-10\-8--8--8-0-10-10-10-0-|


VERSE
-------------------------------------------------------|
-------------------------------------------------------|
-------------------------------------------------------|
-777777-10\99999999--8-88-88-88-/-11-11-11-11-11-11-11-|
-777777-10\99999999--x-xx-xx-xx-/--x--x--x--x--x--x--x-|
-555555--8\77777777--6-66-66-66-/--9--9--9--9--9--9--9-|


VERSE
------------------------------------------------------------------|
------------------------------------------------------------------|
-------------------------------------------------------12-12-12---|
-77777-/10-99999999-10-10-10-10-10-10-10-12\10-10-10---12-12-12---|
-77777-/10-99999999-10-10-10-10-10-10-10-12\10-10-10-0-10-10-10-0-|
-55555-/-8-77777777--8--8--8--8--8--8--8-10\-8--8--8-0-10-10-10-0-|


VERSE
-----------------------------------------5555555-|
-----------------------------------------5555555-|
-10-10-10-10-10-10-10-9\77777777---------5555555-|
-10-10-10-10-10-10-10-9\77777777-7777777-7777777-|
--8--8--8--8--8--8--8-7\55555555-7777777-7777777-|
--8--8--8--8--8--8--8-7\55555555-5555555-5555555-|


CHORUS
|------------------------0--------------------|----------------------|
|:-----------------------0-((5555555555555))-:|----------------------|
|------------------------9-((5555555555555))--|----------------------|
|--9\7777-9999\7777-99-x-9-----harmonics------|-9\7777-9999\7777-999-|
|:-9\7777-9999\7777-99-x-7-------------------:|-9\7777-9999\7777-999-|
|--7\5555-7777\5555-77-x-0--------------------|-7\5555-7777\5555-777-|



|--0-------|-0------------------00000000---00000000--------------------|
|:-0------:|-0------------------00000000---00000000--trem-pick-fast----|
|--4-------|-4------------------44444444---44444444-*99999999999999999-|
|--2--P-M--|-2--P--------M----2-22222222-2-22222222-*xxxxxxxxxxxxxxxxx-|
|:-2--===-:|-2--==========----2-22222222-2-22222222-*77777777777777777-|
|--0--0-1--|-0--0-1-111111----0-00000000-0-00000000--------------------|



“ON MY OWN BLOOOOOOD……………”
-------------------------------------------------------------------|
-QUICK-------------------------------------------------------------|
-rest--------------------------------------------------------------|
-------------------------------------------------------------------|
-------------------------------------------------------------------|
-------------------------------------------------------------------|



|--------------------------------------------|
|:------------------------------------------:|
|--------------------------------------------|
|--9\7777-9999\7777-9999\7777-9999\7777-999--|
|:-9\7777-9999\7777-9999\7777-9999\7777-999-:|
|--7\5555-7777\5555-7777\5555-7777\5555-777--|



CHORUS
-----------------------0---------------------------0--------------|
-----------------------0-((5555555555555))---------0-LET RING OUT-|
-----------------------9-((5555555555555))-9999999-0--------------|
-9\7777-9999\7777-99-x-9-----harmonics-----9999999-0--------------|
-9\7777-9999\7777-99-x-7-------------------7777777----------------|
-7\5555-7777\5555-77-x-0-------------------7777777----------------|    

Added On December 16th, 2013

SHARE

Comments

blog comments powered by Disqus

ADVERTISEMENT