Air Tabs

Cherry Blossom Girl

2 versions

TAB

            Cherry Blossom Girl Tab by Air


##################################################################################
# This file is the author's own work and represents their interpretation of the  #
# song. You may only use this file for private study, scholarship, or research.  #
##################################################################################

"Cherry Blossom Girl"                                                     
as recorded by AIR
from 2004 "Talkie Walkie"

Tuning Info
#####################
e as e
B as B
G as G
D as D
A as A
E as E
Set Frequency to 440 Hz
#####################

INTRO,VERSES.
Guitar 1(Acoustic)
CAPO 4 (Chords name respective to capoed guitar)


A5            F      G      Em            F      G(C9/G)
e|------------------------------------------------------------|
B|---0------0------1------0------0------0------1-----1h3-0----|
G|-2--2-2-2--2-0-2--2-0-0--0-0-0--0-0-0--0-0-2--2-0-------0-0-|
D|--2--2---2--2---3--3---0--0---2--2---2--2---3--3--0------0--|
A|0------0----------------------------------------------------|
E|--------------1------3------0------0------1------3----------|
 
  A5            F       G      Em             F        G(C9/G)       
e|----------0---------------------------------------------------------|
B|---0-------0------1------0------0------0---------1-----1h3-0--------|
G|-2--2-2-2---2---2--2-0-0--0-0-0--0-0-0--0-0----2--2-2-------0-0-----|
D|--2--2---2---2---3--3---0--0---2--2---2--2----3-3--3--0------0------|
A|0------0------------------------------------------------------------|
E|--------------1-------3------0------0-------1--------3--------------|

INTERLUDE

Guitar 1
   
  A5              F       Fadd6         
e|-----------------------------------------------------|Repeat 
B|---0-------1-------3-------3-------------------------|
G|-2--2-2--2--2-0--2---2---2--2-2----------------------|
D|--2--2----3--3--3-3-3-3-3-3--3-----------------------|
A|0----------------------------------------------------|
E|--------1--------------------------------------------|

OUTRO

Guitar 1
Just Fadd6 repeated with a final arpeggio

e|----------------|----------|--------|
B|---3-------3----|----------|-3------|
G|-2---2---2--2-2-|--REPEAT--|-2------|
D|3-3-3-3-3-3--3--|----------|-3------|
A|----------------|----------|--------|
E|----------------|----------|--------|

That's all.This is not an accourate tab but the song is very easy.
OK,THANKS TO AIR: Y0U'RE FUCKING GENIUS!!

SONG TABBED BY BRUNO GAMBA 2004   ANY QUESTION nobbru@libero.it    

Added On December 4th, 2013

SHARE

Comments

blog comments powered by Disqus

VERSIONS

ADVERTISEMENT