Alesana Tabs

Obession Is Such An Ugly Word

1 versions

TAB

            Obsession Is Such An Ugly Word
Alesana
Where Myth Fade To Legend
By: rreezzoonn

Tuning: Dropped D

NOTE:
•	This is my version of the song. I don’t know if its sounds exactly like 
        the song, but it sounded right(private opinion dude :p).
•	Listen to the song for the timing of the picking, because I’m not quite 
        sure how many time should I play the notes. Sorry, this is my first tab anyway.
•	Rate please, because I’m sure this tab is better than any tab for this 
        song (one more time, this is just my opinion dude! -piece) no offend for other tab makers.
•	Any correction are welcome! Just contact re-zon@hotmail.com
•	Thank You and Have fun!!!

INTRO: Guitar 1 (Many Times)
e|--------------------------------------------------------|
B|--------------------------------------------------------|
G|-----777-77777------------------------------------------|
D|-----777-77777-77-888-88888-1010------------------------|
A|-----555-55555-77-888-88888-1010------------------------|
D|---------------77-888-88888-1010------------------------|
       Guitar 2 & 3 (Enters After Guitar 1 Does Above For The 3rd Time)
e|---------------------------------------------------------------------------|
B|---------------------------------------------------------------------------|
G|-----77777777-5-7-9-10-9-9-9-9-9-9-9-9--101010\----------------------------|
D|-----xxxxxxxx-x-x-x-x--x-x-x-x-x-x-x-x--x-x-x-\----------------------------|
A|-----55555555-3-5-7-8—-7-7-7-7-7-7-7-7—-8-8-8-\----------------------------|
D|---------------------------------------------------------------------------|
				&
e|---------------------------------------------------------------------------|
B|---------------------------------------------------------------------------|
G|-----77777777-9-7-9-12-1010101010101010-141414\----------------------------|
D|-----xxxxxxxx-x-x-x-x--x-x-x-x-x-x-x-x--x-x-x-\----------------------------|
A|-----55555555-7-5-7-10-8-8-8-8-8-8-8-8--121212\----------------------------|
D|---------------------------------------------------------------------------|

VERSE: 
Guitar 1
		A					B   then play A some more
e|------------------------------------|----------------------------------------------|
B|------------------------------------|----------------------------------------------|
G|------------------------------------|----------------------------------------------|
D|-----88888888-10101010-12121212-----|-88888888-10101010-12121212-10101010-88888888-|
A|-----88888888-10101010-12121212--2x-|-88888888-10101010-12121212-10101010-88888888-|
D|-----88888888-10101010-12121212-----|-88888888-10101010-12121212-10101010-88888888-|

Guitar 2
		A					B   then play A some more
e|------------------------------------|----------------------------------------------|
B|------------------------------------|----------------------------------------------|
G|-----77777777-99999999-10101010-----|-77777777-99999999-1010-9-9-10101010----------|
D|-----xxxxxxxx-xxxxxxxx-x-x-x-x---2x-|-xxxxxxxx-xxxxxxxx-x-x--x-x-x-x-x-x-----------|
A|-----55555555-77777777-8-8-8-8------|-55555555-77777777-8-8--7-7-8-8-8-8-----------|
D|------------------------------------|----------------------------------------------|

Guitar 3
		A					B   then play A some more
e|------------------------------------|----------------------------------------------|
B|------------------------------------|----------------------------------------------|
G|-----10101010-12121212-14141414-----|-10101010-12121212-1414-1212-14141414---------|
D|-----x-x-x-x--x-x-x-x—-x-x-x-x---2x-|-x-x-x-x--x-x-x-x--x-x--x-x--x-x-x-x----------|
A|-----8-8-8-8--10101010-12121212-----|-8-8-8-8--10101010-1212-8-8--12121212---------|
D|------------------------------------|----------------------------------------------|




PRE-CHORUS: 
Guitar 2 (I’m not quite sure for this part)
e|---------------------------------------------------------------------------|
B|---------------------------------------------------------------------------|
G|----------------9------------------9----------------------------------14---|
D|----10-8-7-8-10---10-8-10-8-7-8-10---10-8-10-—7--10/12/14-12-12h14-12------|
A|---------------------------------------------------------------------------|
D|---------------------------------------------------------------------------|

e|---------------------------------------131213121312131213121312131213------|
B|-----------------------------12/13-10~-------------------------------------|
G|-12-12h14-12-10~-12/14-12-10-----------------------------------------------|
D|---------------------------------------------------------------------------|
A|---------------------------------------------------------------------------|
D|---------------------------------------------------------------------------|

Guitar 1 & 3
e|---------------------------------------------------------------------------|
B|---------------------------------------------------------------------------|
G|---------------------------------------------------------------------------|
D|----8-10-12-7-8-10-12-7-8-10-----------------------------------------------|
A|----8-10-12-7-8-10-12-7-8-10-----------------------------------------------|
D|----8-10-12-7-8-10-12-7-8-10-121012101210121012101210121012----------------|
      * *  *  *
CHORUS: Guitar 1
e|------------------------------------------------------------------|
B|------------------------------------------------------------------|
G|------------------------------------------------------------------|
D|---121212121212-7-7-7-7-7-8888888-10-10-10-10-10-555555-7-7-7-7-7-|
A|---121212121212-7-7-7-7-7-8888888-10-10-10-10-10-555555-7-7-7-7-7-|
D|---121212121212-7-7-7-7-7-8888888-10-10-10-10-10-555555-7-7-7-7-7-|

|-------------------------------------------------------------------------------|
|-------------------------------------------------------------------------------|
|----------------------------777-77777------------------------------------------|
|-888888-10-10-10-10-10------777-77777-77-888-88888-1010------------------------|
|-888888-10-10-10-10-10------555-55555-77-888-88888-1010------------------------|
|-888888-10-10-10-10-10----------------77-888-88888-1010------------------------|





SCREAM PART
e|---------------------------------------------------------------------------|
B|---------------------------------------------------------------------------|
G|---------------------------------------------------------------------------|
D|---12-12-12-12-12-12-12-12-8-8-8-8-10-10-10-10-----------------------------|
A|---12-12-12-12-12-12-12-12-8-8-8-8-10-10-10-10-----------------------------|
D|---12-12-12-12-12-12-12-12-8-8-8-8-10-10-10-10-----------------------------|

e|---------------------------------------------------------------------------|
B|---------------------------------------------------------------------------|
G|---------------------------------------------------------------------------|
D|---12-12-12-12-12-12-12-12-8-8-8-8-10-10-10-10-12-10-8-7-------------------|
A|---12-12-12-12-12-12-12-12-8-8-8-8-10-10-10-10-12-10-8-7-------------------|
D|---12-12-12-12-12-12-12-12-8-8-8-8-10-10-10-10-12-10-8-7-------------------|


PRE-CHORUS: 
Guitar 2 (I’m not quite sure for this part)
e|---------------------------------------------------------------------------|
B|---------------------------------------------------------------------------|
G|----------------9------------------9----------------------------------14---|
D|----10-8-7-8-10---10-8-10-8-7-8-10---10-8-10-—7--10/12/14-12-12h14-12------|
A|---------------------------------------------------------------------------|
D|---------------------------------------------------------------------------|

e|---------------------------------------131213121312131213121312131213------|
B|-----------------------------12/13-10~-------------------------------------|
G|-12-12h14-12-10~-12/14-12-10-----------------------------------------------|
D|---------------------------------------------------------------------------|
A|---------------------------------------------------------------------------|
D|---------------------------------------------------------------------------|

Guitar 1 & 3
e|---------------------------------------------------------------------------|
B|---------------------------------------------------------------------------|
G|---------------------------------------------------------------------------|
D|----8-10-12-7-8-10-12-7-8-10-----------------------------------------------|
A|----8-10-12-7-8-10-12-7-8-10-----------------------------------------------|
D|----8-10-12-7-8-10-12-7-8-10-121012101210121012101210121012----------------|



CHORUS: Guitar 1
e|------------------------------------------------------------------|
B|------------------------------------------------------------------|
G|------------------------------------------------------------------|
D|---121212121212-7-7-7-7-7-8888888-10-10-10-10-10-555555-7-7-7-7-7-|
A|---121212121212-7-7-7-7-7-8888888-10-10-10-10-10-555555-7-7-7-7-7-|
D|---121212121212-7-7-7-7-7-8888888-10-10-10-10-10-555555-7-7-7-7-7-|

|-----------------------|
|-----------------------|
|-----------------------|
|-888888-10-10-10-10-10-|
|-888888-10-10-10-10-10-|
|-888888-10-10-10-10-10-|

SCREAM PART AGAIN
Guitar 1                                        Ends
e|--------------------------------------------|-------------------------------|
B|--------------------------------------------|-------------------------------|
G|--------------------------------------------|-------------------------------|
D|---0-0-00000-0-0-00000-0-0-00000-0-0-00000--|--1~---------------------------|
A|---0-0-00000-0-0-00000-0-0-00000-0-0-00000--|--1~---------------------------|
D|---0-0-00000-0-0-00000-0-0-00000-0-0-00000--|--1~---------------------------|

Guitar 2 (Many Times)
e|---------------------------------------------------------------------------|
B|-----5---5---6---6---8---8---5---5-----------------------------------------|
G|-------6---6---6---6---6---6---6---6---------------------------------------|
D|---------------------------------------------------------------------------|
A|---------------------------------------------------------------------------|
D|---------------------------------------------------------------------------|






BREAKDOWN:(Palm muted or not its your choice >_    

Added On December 16th, 2013

SHARE

Comments

blog comments powered by Disqus

ADVERTISEMENT