Alien Ant Farm Tabs

Sarah Wynn

2 versions

TAB

            Sarah Wynn Tab by Alien Ant Farm


 ***NOTEPAD***
  Song: "Sarah Wynn"
  Band: Alien Ant Farm
 Album: "truANT"
 Athor: stanley_360@front.ru
  
Intro
e|-------------------------------------------------------------------------|
B|-------------------------------------------------------------------------|
G|----97----97----99----97----97----99----97----97----99-77777777-99999999-|
D|-------------------------------------------------------77777777-99999999-|
A|-77----77----77----55----55----55----77----77----77----55555555-77777777-|
E|-------------------------------------------------------------------------|

 Verse
e|-------------------------------------------------------------------------|
B|-------------------------------------------------------------------------|
G|----97----97----99----97----97----99----97----97----99-77777777-99999999-|
D|-------------------------------------------------------77777777-99999999-|
A|-77----77----77----55----55----55----77----77----77----55555555-77777777-|
E|-------------------------------------------------------------------------|

e|-------------------------------------------------------------------------|
B|-------------------------------------------------------------------------|
G|----97----97----99----97----97----99----97----97----99-77777777-99999999-|
D|-------------------------------------------------------77777777-99999999-|
A|-77----77----77----55----55----55----77----77----77----55555555-77777777-|
E|-------------------------------------------------------------------------|

 Chorus
e|------------------------------------------------------------|
B|------------------------------------------------------------|
G|-77-55-33-55-7777777777777777--77-55-33-55-7777777777777777-|
D|-77-55-33-55-7777777777777777--77-55-33-55-7777777777777777-|
A|-55-33-11-33-5555555555555555--55-33-11-33-5555555555555555-|
E|------------------------------------------------------------|

e|------------------------------------------------------------|
B|------------------------------------------------------------|
G|-77-55-33-55-7777777777777777--77-55-33-55-7777777777777777-|
D|-77-55-33-55-7777777777777777--77-55-33-55-7777777777777777-|
A|-55-33-11-33-5555555555555555--55-33-11-33-5555555555555555-|
E|------------------------------------------------------------|

 Preverse
e|-------------------------------------|
B|-------------------------------------|
G|----97----97----99----97----97----99-|
D|-------------------------------------|
A|-77----77----77----55----55----55----|
E|-------------------------------------|

 Verse
e|-------------------------------------|
B|-------------------------------------|
G|----97----97----99----97----97----99-|
D|-------------------------------------|
A|-77----77----77----55----55----55----|
E|-------------------------------------|

e|-------------------------------------|
B|-------------------------------------|
G|----97----97----99----97----97----99-|
D|-------------------------------------|
A|-77----77----77----55----55----55----|
E|-------------------------------------|

e|-------------------------------------|
B|-------------------------------------|
G|----97----97----99----97----97----99-|
D|-------------------------------------|
A|-77----77----77----55----55----55----|
E|-------------------------------------|

e|----------------------------------|
B|----------------------------------|
G|----------------77777777-99999999-|
D|----------------77777777-99999999-|
A|-77----77----77-55555555-77777777-|
E|----------------------------------|

 Chorus
e|------------------------------------------------------------|
B|------------------------------------------------------------|
G|-77-55-33-55-7777777777777777--77-55-33-55-7777777777777777-|
D|-77-55-33-55-7777777777777777--77-55-33-55-7777777777777777-|
A|-55-33-11-33-5555555555555555--55-33-11-33-5555555555555555-|
E|------------------------------------------------------------|

e|------------------------------------------------------------|
B|------------------------------------------------------------|
G|-77-55-33-55-7777777777777777--77-55-33-55-7777777777777777-|
D|-77-55-33-55-7777777777777777--77-55-33-55-7777777777777777-|
A|-55-33-11-33-5555555555555555--55-33-11-33-5555555555555555-|
E|------------------------------------------------------------|

 Prebridge
e|---------|
B|---------|
G|-7--3--5-|
D|-7--3--5-|
A|-5--1--3-|
E|---------|

 Bridge
e|----------------------------------------------------------------------------|
B|----------------------------------------------------------------------------|
G|----9p7----99----9p7----99--10-10-10-10-12-12-12-12-14-14-14-14-14-14-14-14-|
D|----------------------------------------------------------------------------|
A|-77-----77----77-----77-----------------------------------------------------|
E|----------------------------------------------------------------------------|

e|----------------------------------------------------------------------------|
B|----------------------------------------------------------------------------|
G|----9p7----99----9p7----99--10-10-10-10-12-12-12-12-14-14-14-14-14-14-14-14-|
D|----------------------------------------------------------------------------|
A|-77-----77----77-----77-----------------------------------------------------|
E|----------------------------------------------------------------------------|

e|----------------------------------------------------------------------------|
B|----------------------------------------------------------------------------|
G|----9p7----99----9p7----99--10-10-10-10-12-12-12-12-14-14-14-14-14-14-14-14-|
D|----------------------------------------------------------------------------|
A|-77-----77----77-----77-----------------------------------------------------|
E|----------------------------------------------------------------------------|

e|----------------------------------------------------------------------------|
B|----------------------------------------------------------------------------|
G|----9p7----99----9p7----99--10-10-10-10-12-12-12-12-14-14-14-14-19-19-19-19-|
D|----------------------------------------------------------------------------|
A|-77-----77----77-----77-----------------------------------------------------|
E|----------------------------------------------------------------------------|

e|------------------------------------------------------------------------------------|
B|------------------------------------------------------------------------------------|
G|-999999999999999999999999999999999999999999999999-1212121212121212-1414141414141414-|
D|-999999999999999999999999999999999999999999999999-1212121212121212-1414141414141414-|
A|-777777777777777777777777777777777777777777777777-1010101010101010-1212121212121212-|
E|------------------------------------------------------------------------------------|

 Prechorus
e|-------------------------------------|
B|-------------------------------------|
G|----97----97----9-77777777-99999999--|
D|------------------77777777-99999999--|
A|-77----77----77---55555555-77777777--|
E|-------------------------------------|

 Last Chorus
e|------------------------------------------------------------|
B|------------------------------------------------------------|
G|-77-55-33-55-7777777777777777--77-55-33-55-7777777777777777-|
D|-77-55-33-55-7777777777777777--77-55-33-55-7777777777777777-|
A|-55-33-11-33-5555555555555555--55-33-11-33-5555555555555555-|
E|------------------------------------------------------------|

e|------------------------------------------------------------|
B|------------------------------------------------------------|
G|-77-55-33-55-7777777777777777--77-55-33-55-7777777777777777-|
D|-77-55-33-55-7777777777777777--77-55-33-55-7777777777777777-|
A|-55-33-11-33-5555555555555555--55-33-11-33-5555555555555555-|
E|------------------------------------------------------------|

e|------------------------------------------------------------|
B|------------------------------------------------------------|
G|-77-55-33-55-7777777777777777--77-55-33-55-7777777777777777-|
D|-77-55-33-55-7777777777777777--77-55-33-55-7777777777777777-|
A|-55-33-11-33-5555555555555555--55-33-11-33-5555555555555555-|
E|------------------------------------------------------------|

 Ending
e|------------------------|
B|------------------------|
G|-99--77--99--55--55--77-|
D|-99--77--99--55--55--77-|
A|-77--55--77--33--33--55-|
E|------------------------|

Lyrix:
Remeber when we were young?
We'd smoke cigarettes behind the store.
Pimpin' beers for fun.
Back then I loved you.

Making you almost cry
under Louisiana sky.
Never thought you'd fly.
We all miss you.

What the hell were you thinking?
I can't help you know, Sarah.
Why the hell were you shooting up?
Now you're coming down, Sarah.

I know it's been some time
But now you're back I'll try to help.
It seems I wasted time,
cause only you can help yourself.

A calm and collected mind.
I talked to your parents yesterday.
It seems they're doing fine.
They're worried about you.

What the hell were you thinking?
(What the hell were you thinking?)
I can't help you know, Sarah.
Why the hell were you shooting up?
(Why the hell were you shooting up?)
Now you're coming down, Sarah.

Habits are hard to break.
I don't know how much I can take from you.
I guess that I'll never relate.
I really don't know what to make of you.

We're worried about you.

What the hell were you thinking?
(What the hell were you thinking?)
I can't help you know, Sarah.
Why the hell were you shooting up?
(Why the hell were you shooting up?)
Now you're coming down, Sarah.

What the hell were you thinking?
(What the hell were you thinking?)
I can't help you know, Sarah.
Why the hell were you shooting up?
(Why the hell were you shooting up?)
Now you're coming down, Sarah.    

Added On December 4th, 2013

SHARE

Comments

blog comments powered by Disqus

VERSIONS

ADVERTISEMENT