Angus And Julia Stone Tabs

Paper Aeroplane

2 versions

TAB

            Drop D Tuning  DADGBE






MAIN RIFF:
E-|----------------------------------------|----------------------------------------|-
B-|----------------------------------------|----------------------------------------|-
G-|----------------------------------------|----------------------------------------|-
D-|---1--1------1--1------1--1------1--1---|---1--1------1--1------1--1------1--1---|-
A-|-2------2--2------2--2------2--2------2-|----------------------------------------|-
D-|----------------------------------------|-1------1--1------1--1------1--1------1-|-

VARIATION (2:24 in):
E-|----------------------------------------|----------------------------------------|-
B-|----------------------------------------|----------------------------------------|-
G-|----------------------------------------|----------------------------------------|-
D-|---8--8------8--8------8--8------8--8---|---1--1------1--1------1--1------1--1---|-
A-|----------------------------------------|----------------------------------------|-
D-|-9------9--9------9--9------9--9------9-|-1------1--1------1--1------1--1------1-|-    

Added On December 16th, 2013

SHARE

Comments

blog comments powered by Disqus

VERSIONS

ADVERTISEMENT