Arctic Monkeys Tabs

Leave Before The Lights Come On

7 versions

TAB

            Leave Before The Lights Come On Tab by Arctic Monkeys


I worked all these out by ear so I doubt they are the acctual riff, but good enough to 
along wif! x_x

.::INTRO::.
E|-----------------------------------------------------|
B|------------10-8---8-------8--------------8----------|
G|--9-9-9-9-9------9---9-------9-7-9-7--------9-7-9-7--|
D|-----------------------7-7------------7-7------------|
A|-----------------------------------------------------|
E|-----------------------------------------------------|

.::CHORUS::.

E|-----------------------------------------------------|
B|------------10-8---8-------8--------------8----------|
G|--9-9-9-9-9------9---9-------9-7-9-7--------9-7-9-7--|
D|-----------------------7-7------------7-7------------|
A|-----------------------------------------------------|
E|-----------------------------------------------------|

 .::BRIDGE::.
E|------------------------------------------------|
B|------------------------------------------------|
G|------------------------------------------------|
D|----5---------5--------5--------5--------5------|
A|--3---3-3-3-3---3-3-3-3--3-3-3-3--3-3-3-3--3----|
E|------------------------------------------------|


|-----------------------------------------------------------------|
|-----------------------------------------------------------------|
|-------------------4-----4---------------------------------------|
|----2--2---2--2------5-----5------2-5-2---2-5-2---2-5-2---2-5-2--|
|--3--5---3--5----7-----7-------5--------5-------5-------5--------|   X3
|-----------------------------------------------------------------|

.::CHORUS TWO::.
|-----------------------------------------------------------|
|-----------------------------------------------------------|
|-----------------------------------------------------------|
|------------------7-5---5----------5-------------5---------|
|--7-7-7-7-7-7-7-7-----7---7----------7-5-7-5-------7-5-7-5-|
|----------------------------5---5-5-----------5-5----------|


.::SOLO::.

(These Are Just he Fret Numbers For Where The First Part Of The Solo Are Played, Listen 
How Many Times Each Note Is Played)
E|------------------------------------------------------------|
B|------------------------------------------------------------|
G|----------------------------------------------------------9-|
D|------------------------------------------------------------|
A|--0--12--10--7--5--3--5--7--5--7--10--12--10--12--7--5--3---|
E|------------------------------------------------------------|

E|------------------------------------------------------------|
B|------------------10-8---8-------8--------------8-----------|
G|--9-9-9-9-9-9-9-9------9---9b-------9-7-9-7--------9-7-9-7--|
D|------------------------------7-7------------7-7------------|
A|------------------------------------------------------------|
E|------------------------------------------------------------|

E|-------------------------------------------------------------------------|
B|----------------------------------10-8---8---8-------8-------8-------8---|
G|--9-9-9-9-9-9-9-9-9-9-9-9-9-9-9-9------9-------9-7-9---9-9-----9-7-9---9-|
D|-------------------------------------------7---------------7-------------|
A|-------------------------------------------------------------------------|
E|-------------------------------------------------------------------------|

|-------------------------------|
|-------------------------------|
|--9-9-7-9--9-7-9--9-7-9-7------|
|-------------------------------|
|-------------------------------|
|-------------------------------|


Plz Rate if You Like Cheers x_x    

Added On December 4th, 2013

SHARE

Comments

blog comments powered by Disqus