Arctic Monkeys Tabs

Wagon On The Way To The Stripey Tent

1 versions

TAB

            -------------------------------------------------------------------------------
	 Wagon On The Way To The Stripey Tent - Arctic Monkeys
-------------------------------------------------------------------------------
Tabbed by:arctic_monkeys
Email:

Tuning: Standard

This is my 1st tab. feedback appreciated.
this song is a newly created intro by AM for 'this house is a circus'. it has been 
live on tour in america recently.


play 4 times
e|--------------------------------------------------------------------------------|
B|--------------------------------------------------------------------------------|
G|--------------------------------------------------------------------------------|
D|-----------0--------------------2--0--------------------------------------------|
A|------2-3----3--2--3--0--2--3--------3-2----------------------------------------|
E|--------------------------------------------------------------------------------|

play 1 time
E-------------------------------------------------------------|
B-------------------------------------------------------------|
G---16b-------------------------------------------------------|
D-------14b--14--16--14 11------------------------------------|
A-------------------------------------------------------------|
E-------------------------------------------------------------|

afterwards its mainly the same but the ending is different havent worked it out yet. 
listen to the song and play the bits in order.    

Added On December 16th, 2013

SHARE

Comments

blog comments powered by Disqus

ADVERTISEMENT