As Blood Runs Black Tabs

My Fears Have Become Phobias

10 versions

TAB

            My Fears Have Become Phobias Tab by As Blood Runs Black


Intro, Guitar I
D|----------------------------------------------------------------------------------------------------------------------------|
A|----------------------------------------------------------------------------------------------------------------------------|
F|------------------------------------------------------------------------------------------------------------------9h12p9h12-|
C|-------------------------------------------------------------------------------------------------------8h11p8h11------------|
G|-----8h12p8h12-7h10p7h10-----8h12p8h12-7h10p7h10-----------8h12p8h12-7h10p7h10-----8h12p8h12-7h10p7h10----------------------|
C|-000---------------------000---------------------000000000---------------------000------------------------------------------|

 Intro, Guitar I
D|-------------------------------------------------------------------------------------------------------|
A|-------------------------------------------------------------------------------------------------------|
F|-----------------------------------------------------------------------------------------------6h9p6h9-|
C|---------------------------------------------------------------------------------------5h8p5h8---------|
G|-----5h8p5h8-4h7p4h7-----5h8p5h8-4h7p4h7-----------5h8p5h8-4h7p4h7-------------4h7p4h7-----------------|
C|-000-----------------000-----------------000000000-----------------000-5h8p5h8-------------------------|


D|-----------------------------------------------------------------------------|
A|-----------------------------------------------------------------------------|
F|-----------------------------------------------------------------------------|
C|---------------------------------------------------------------------3p0-----|
G|-0-0-0-0------0-0-0-0---0---0-0-0-0-0-0-0-0-0-0------0-0-0-5p4-------------1-|
C|-0-0-0-0------0-0-0-0---0---0-0-0-0-0-0-0-0-0-0------0-0-0-----0-0-0-----0---|

   Vers I
D|-----------------------------------------------------------------------------------------------------|
A|-----------------------------------------------------------------------------------------------------|
F|-----------------------------------------------------------------------------------------------------|
C|---------------------------------7--------------------------------------------------8----------------|
G|-------8-----7-----10-----7-8-10---10-8-7-8-7-5---------8------7-----10-----8-10-12---12-10-8-10-8-7-|
C|-0-0-0---0-0---0-0----0-0-------------------------8-8-8----8-8---8-8----8-8--------------------------|

Solo
D|-------------------------------------------------------------------------|
A|-------------------------------------------------------------------------|
F|-----7777-9999-10101010-12121212-14141414--15-14-12-10--17h20p17--151515-|
C|000----------------------------------------------------------------------|
G|000----------------------------------------------------------------------|
C|000----------------------------------------------------------------------|
PM...
D|--------------------------------------------------------------|
A|------------------------------------------------------*10-----|
F|15h18p15--141414--14h17p14--121212--12h15p12--9--9109-----910-|
C|--------------------------------------------------------------|
G|--------------------------------------------------------------|
C|--------------------------------------------------------------|

D|---------------------------------------------------------------------|
A|-----*10-------------------------------------------------------------|
F|9109-----910--17h20p17-15h18p15-14h17p14-12h15p12-10h13p10-9h12p9--7-|
C|---------------------------------------------------------------------|
G|---------------------------------------------------------------------|
C|---------------------------------------------------------------------|

D|------------------------------------------------------------|
A|---------------15h18p15----------------------15h18p15-------|
F|------14-15-14----------15-14-------14-15-14----------15-14-|
C|---15----------------------------15-------------------------|
G|17----------------------------17----------------------------|
C|------------------------------------------------------------|

D|------------------------------------------------------------|
A|------------------------------------------------------------|
F|------14-15-14-14h15p14-------------14-15-14-14h15p14-------|
C|---15-------------------15-14----15-------------------15-14-|
G|17----------------------------17----------------------------|
C|------------------------------------------------------------|

  Vers II
D|---------------------------------------------------------------------------------------|
A|---------------------------------------------------------------------------------------|
F|---------------------------------------------------------------------------------------|
C|---------------------------------------------------------------------------------------|
G|-------5/8-7-----7h10-------5/8-7-----7h10-------8p7-------10/12-------8p7-------10/12-|
C|-0-0-0-------0-0------0-0-0-------0-0------8-8-8-----8-8-8-------8-8-8-----8-8-8-------|

   Breakdown II
D|-------------------------------------|
A|-------------------------------------|
F|-------------------------------------|
C|-------------------------------------|
G|-0-1-0----000----0--00--00--00000000-|
C|-0-1-0----000----0--00--00--00000000-|


D|-------------|
A|-------------|
F|-------------|
C|3-2-0-1--3-3-|
G|3-2-0-1--3-2-|
C|3-2-0-1--3-1-|
PM. . . . 


D|--------------------|
A|--------------------|
F|--------------------|
C|0-1-0--000000000000-|
G|0-1-0--000000000000-|
C|0-1-0--000000000000-|
PM. . .  ............



Intro again



  Vers III, Guitar I
D|-------------------------------------------------------------------------------------------------|
A|-------------------------------------------------------------------------------------------------|
F|-------------------------------------------------------------------------------------------------|
C|-------------------------------------------------------------------------------------------------|
G|-------4-----4-----4h5h7-------4-----4-----4h5h7-------5-----5-----5h7h8-------5-----5-----5h7h8-|
C|-0-0-0---0-0---0-0-------0-0-0---0-0---0-0-------0-0-0---0-0---0-0-------0-0-0---0-0---0-0-------|

   Vers III, Guitar II
D|-------------------------------------------------------------------------------------------------------|
A|-------------------------------------------------------------------------------------------------------|
F|-------------------------------------------------------------------------------------------------------|
C|-------------------------------------------------------------------------------------------------------|
G|-------7-----7-----7h8h10-------7-----7-----7h8h10-------8-----8-----8h10h12-------8-----8-----8h10h12-|
C|-0-0-0---0-0---0-0--------0-0-0---0-0---0-0--------0-0-0---0-0---0-0---------0-0-0---0-0---0-0---------|

Breakdown II again    

Added On December 4th, 2013

SHARE

Comments

blog comments powered by Disqus