TAB

            Angou No Waltz Tab by Asian Kung-fu Generation


Artist: Asian Kung-Fu Generation
Song: Angou No Waltz
Album: Fanclub
Tabbed by: Hector Rios
Email: ventblvd@yahoo.com

It's not complete yet but I should finish it within this week and just do minor 
every now and then. The final version should have the timing and everything. I highly recommend 
whole CD! It's amazing stuff :-) Alright here goes:

Two Guitars
Standard Tunning

| /  slide up
| \  slide down
| h  hammer-on
| p  pull-off
| ~  Let Ring/Light Vibrato
| +  harmonic
| x  Mute note
| <  Volume Swell

Intro:

Guitar 1:

e|-----------------------------------------|
B|-----------------------------------------|
G|----------/14-13---------------/14-13----|
D|---11------------14~--/12-11~----------14|x2
A|12----12~--------------------12----------|
E|-----------------------------------------|

Guitar 2: (Slowly increase the volume throughout the song)

e|---------------|
B|---------------|
G|---------------|X4
D|222-444-666-222|
A|000-222-444-222|
E|------------000|

Verse:

Guitar 1:

e|----------|
B|----------|
G|-9---11-9~|x8
D|---9------|
A|----------|
E|----------|

Guitar 2:

e|---------------|
B|---------------|
G|---------------|X4
D|222-444-666-222|
A|000-222-444-222|
E|------------000|

Intro Again:

Guitar 1:

e|-----------------------------------------|
B|-----------------------------------------|
G|----------/14-13---------------/14-13----|
D|---11------------14~--/12-11~----------14|x2
A|12----12~--------------------12----------|
E|-----------------------------------------|

Guitar 2: (Slowly increase the volume throughout the song)

e|---------------|
B|---------------|
G|---------------|X4
D|222-444-666-222|
A|000-222-444-222|
E|------------000|

Verse 2:

Guitar 1:

e|------------|
B|------------|
G|-9---11-9---|x8
D|---9------9~|
A|------------|
E|------------|

Guitar 2:

e|---------------|
B|---------------|
G|---------------|X4
D|222-444-666-222|
A|000-222-444-222|
E|------------000|

Chorus: (All Guitars Distorted)

Guitar 1 or 3 (There's a guitar that swells with distortion)
e|---------------------------------------------------------------------------|
B|---------------------------------------------------------------------------|
G|9    

Added On December 4th, 2013

SHARE

Comments

blog comments powered by Disqus

VERSIONS

ADVERTISEMENT