Avenged Sevenfold Tabs

Critical Acclaim

12 versions

TAB

            Hey This Is My First Tab This Is Only Part Of The Song To Get You Started. Ill Tab The 
Song When It Comes Out ( Aug - 28 - 07 ), So If Any Corrections Email me. 
K Later.

Avenged Sevenfold - Critical Acclaim.
Tuning - Dropped D - DADGBe
Guitar 1 - Synyster Gates
Guitar 2 - Zacky Vengence
Guitar 3 - Back Up

\Intro/

Guitar 1

e/-13-10---13-12~~15-17-15-13-12---13~~12~~10-12-10~~-|
B/------10-----------------------13-------------------|
G/----------------------------------------------------|
D/----------------------------------------------------|
A/----------------------------------------------------|
D/----------------------------------------------------|

Guitar 2

e/---------------------------|
B/---------------------------|
G/-------5~----3~---5~-------|
D/-0~----5~----3~---5~----0~-|
A/-0~----3~----1~---3~----0~-|
D/-0~---------------------0~-|

Guitar 1

e/-13-10---13-12~~15-17-15-13-12---13~~12~~10-12-10~~-|
B/------10-----------------------13-------------------|
G/----------------------------------------------------|
D/----------------------------------------------------|
A/----------------------------------------------------|
D/----------------------------------------------------|

Guitar 2

e/-17-13-10-17-15~~12-13-12--10-------15~~15~~13-15-13~-|
B/------------------------------13-10-------------------|
G/------------------------------------------------------|
D/------------------------------------------------------|
A/------------------------------------------------------|
D/------------------------------------------------------|

Guitar 3

e/---------------------------|
B/---------------------------|
G/-------5~----3~---5~-------|
D/-0~----5~----3~---5~----0~-|
A/-0~----3~----1~---3~----0~-|
D/-0~---------------------0~-|

Guitar 1
e/-Do this many times before he stops screaming.
B/-17-------------------------------------------|
G/-19b------------------------------------------|
D/----------------------------------------------|
A/----------------------------------------------|
D/----------------------------------------------|

Guitar 2

e/----------------------------------------------|
B/----------------------------------------------|
G/-Same thing do this before he stops screaming.
D/----------------------------------------------|
A/-.-.-.-.-.-.-.-.------------------------------|
D/-0-0-0-0-0-0-0-0------------------------------|

\Verse/

Guitar 1

e/------------------|
B/--------------15--|
G/--------------17b-|
D/------------------|
A/-.-.-.-.-.-.------|
D/-0-0-0-0-0-0------|x7, But last time hit the whammy bar on 13,15b

Guitar 2

e/--------------15--|
B/--------------17b-|
G/------------------|
D/------------------|
A/-.-.-.-.-.-.------|
D/-0-0-0-0-0-0------|x7, But last time hit the whammy bar on 13,15b

Guitar's 2,3
         "Be quite u might piss some body off"
e/----------------|-----------|
B/----------------|-----------|
G/----------------|-----------|
D/-0--0-0-1--0--0-|-0-0-1---3-|
A/-0--0-0-1--0--0-|-0-0-1---3-|
D/-0--0-0-1--0--0-|-0-0-1---3-|x4

Guitar's 2,3
"Self rightousness is wearing thin"
e/----------------|--------------|
B/----------------|--------------|
G/----------------|-.-.-.-.------|
D/-0--0-0-1--0--0-|-0-0-0-0--1-3-|
A/-0--0-0-1--0--0-|-0-0-0-0--1-3-|
D/-0--0-0-1--0--0-|-0-0-0-0--1-3-|x4

Guitar 1 Comes at the end of the 4th time with this.
"Broken glass, you'll fade reflection"
e/-17---------16--------------------------------------12--|b
B/----18---------18---------------------------------------|
G/-------19---------19------13---12---------------14------|
D/----------19---------19------14----15-12-----15---------|
A/------------------------------------------17------------|
D/--------------------------------------------------------|

Chorus?

Guitar 1
"Telling them it's all for something real"
e/----------------------------------|
B/----------------------------------|
G/-7--7~/-9---9~/-10--7--6-6-7-9-10-|
D/-x--x~/-x---x~/-x---x--x-x-x-x-x--|
A/-5--5~/-7---7~/-8---5--4-4-5-7-8--|
D/----------------------------------|

Guitar 2

e/----------------------|
B/----------------------|
G/----------------------|
D/-0----2----8----6-----|
A/-0----3----8----7-----|
D/-0----2----8----4-----|

Spoken Part

Guitar 1,2
"So how does it feel to know that someone's kid in the heart of America"
e/-----------------------------------|
B/-----------------------------------|
G/-----------------------------------|
D/-1-0------------------------1-0----|
A/-1-0-----.-.-.-.-.-.-.-.----1-0----|
D/-1-0-----0-0-0-0-0-0-0-0----1-0----|x3
Guitar 1,2
"Well where i'm from we have a special solute"
e/-----------------------|
B/-----------------------|
G/-----------------------|
D/-------------------1-0-|
A/-.-.-.-.-.-.-.-.---1-0-|
D/-0-0-0-0-0-0-0-0---1-0-|x3

Guitar 1

e/------------------|
B/--------------15--|
G/--------------17b-|
D/------------------|
A/-.-.-.-.-.-.------|
D/-0-0-0-0-0-0------|x3, But last time hit the whammy bar on 13,15b

Guitar 2

e/--------------15--|
B/--------------17b-|
G/------------------|
D/------------------|
A/-.-.-.-.-.-.------|
D/-0-0-0-0-0-0------|x3, But last time hit the whammy bar on 13,15b

There you go i did my best. That should get you started, I know i missed a whammy bar at 
end of the spoken part, But ill get that when ill do the whole song.    

Added On December 16th, 2013

SHARE

Comments

blog comments powered by Disqus