Ben Harper Tabs

Lifeline

3 versions

TAB

            G---2-2---2-2---2-2---2-2---2-2---2-2---2-2---2-2----------|
D--------------------------2-----2-----2-----2-------------|
A-4-----4-----4-----4--------------------------------------|
E----------------------------------------------------------|
   and will it slowly pull you under
  i hear you laugh so loudly
  and it's hardest to listen

e----------------------------------------------------------|
B---5-5---5-5---5-5---5-5---5-5---5-5---5-5---5-5----------|
G---2-2---2-2---2-2---2-2---2-2---2-2---2-2---2-2----------|
D----------------------------------------------------------|
A-2-----2-----2-----2------4-----4-----4-----2-------------|
E----------------------------------------------------------|
  when you've always got something to prove
  while i patiently await the joke
  to what we already should know


CHORUS:
e----------------------------------------------------------|
B---5-5---5-5---5-5---5-5---5-5---5-5---5-5---5-5----------|
G---2-2---2-2---2-2---2-2---2-2---2-2---2-2---2-2----------|
D-------------------------2-----2-----2-----2--------------|
A-0-----0-----0-----0--------------------------------------|
E----------------------------------------------------------|
  i don't wanna waste a   lifetime                 yours or
  i could hold out for a lifetime
e----------------------------------------------------------|
B---5-5---5-5---5-5---5-5---5-5---5-5---5-5---5-5----------|
G---2-2---2-2---2-2---2-2---2-2---2-2---2-2---2-2----------|
D----------------------------------------------------------|
A-2-----2-----2-----2-----4-----4-----4-----2--------------|
E----------------------------------------------------------|
  mine           yours or mine
yours or mine               yours and mine

e----------------------------------------------------------|
B---5-5---5-5---5-5---5-5---5-5---5-5---5-5---5-5----------|
G---2-2---2-2---2-2---2-2---2-2---2-2---2-2---2-2----------|
D-------------------------2-----2-----2-----2--------------|
A-0-----0-----0-----0--------------------------------------|
E----------------------------------------------------------|
can't you see me reaching for the lifeline 
can't you see me reaching for your lifeline

e------------------------------------------------------------|
B---5-5---5-5---5-5---5-5---5-5---5-5---5-5---5-5----5----5--|
G---2-2---2-2---2-2---2-2---2-2---2-2---2-2---2-2----2----2--|
D-------------------------------------2-----2------2----2----|
A-2-----2-----4-----4-----0-----0----------------------------|
E------------------------------------------------------------|
 your life    line            your life   line

i'll leave the bridge and the outro to you fullas

shoutout to my house-spanyard Dan

Shot Dale.    

Added On December 16th, 2013

SHARE

Comments

blog comments powered by Disqus

VERSIONS

ADVERTISEMENT