Biffy Clyro Tabs

Saturday Superhouse

3 versions

TAB

            Saturday Superhouse Tab by Biffy Clyro


----------------------------------------------------------------------------
			     Biffy Clyro - Saturday Superhouse
----------------------------------------------------------------------------
Tabbed by: Wiggster
Email:

Tuning: Drop D



e|-00--0--0-0---------------------------------------------|
B|-22--2--2-2---------------------------------------------|
G|--------------------------------------------------------|
D|--------------4-4-4-4-4-4-4-----------------------------|
A|--------------4-4-4-4-4-4-4-----------------------------|
D|--------------4-4-4-4-4-4-4-----------------------------|

Verse----

e|--------------------------------------------------------|
B|--------------------------------------------------------|
G|----------------------------------------4-4-4-4-4-------|
D|-4-4-4-4-4-4-4-4-4-4-4---0-0-0-0-0------4-4-4-4-4-------|x2
A|-4-4-4-4-4-4-4-4-4-4-4---0-0-0-0-0------2-2-2-2-2-------|
D|-4-4-4-4-4-4-4-4-4-4-4---0-0-0-0-0----------------------|

"Ill be sitting on the left side, You'll be sitting on the right....."

Chorus ----

e|------------------------------------------|
B|------------------------------------------|
G|------------------------------------------|x2
D|-0-0-0-0-0--2-2-2-2-2--4-4-4-4-4-4-4------|
A|-0-0-0-0-0--2-2-2-2-2--4-4-4-4-4-4-4------|
D|-0-0-0-0-0--2-2-2-2-2--4-4-4-4-4-4-4------|

Play this third time round instead of above.

e|-------------------------------------------------------------------|
B|-------------------------------------------------------------------|
G|-------------------------------------------------------------------|
D|-0-0-0-0-0--2-2-2-2-2--7-7-7-7-7--0-0-0-0-0-0-0-0-0--2-2-2-2-2--4--|
A|-0-0-0-0-0--2-2-2-2-2--7-7-7-7-7--0-0-0-0-0-0-0-0-0--2-2-2-2-2--4--|
D|-0-0-0-0-0--2-2-2-2-2--7-7-7-7-7--0-0-0-0-0-0-0-0-0--2-2-2-2-2--4--|

Breakdown -----

e|-00--0--0-0----|
B|-22--2--2-2----|
G|---------------|
D|---------------|
A|---------------|
D|---------------|

Verse -----

e|-----------------------|
B|-----------------------|
G|-----------------------|
D|-4-4-4-4-4-4-4-4-4-4-4-|
A|-4-4-4-4-4-4-4-4-4-4-4-|x1
D|-4-4-4-4-4-4-4-4-4-4-4-|

e|--------------------------------------------------------|
B|--------------------------------------------------------|
G|----------------------------------------4-4-4-4-4-------|
D|-4-4-4-4-4-4-4-4-4-4-4---0-0-0-0-0------4-4-4-4-4-------|x2
A|-4-4-4-4-4-4-4-4-4-4-4---0-0-0-0-0------2-2-2-2-2-------|
D|-4-4-4-4-4-4-4-4-4-4-4---0-0-0-0-0----------------------|

Chorus ----

e|------------------------------------------|
B|------------------------------------------|
G|------------------------------------------|x2
D|-0-0-0-0-0--2-2-2-2-2--4-4-4-4-4-4-4------|
A|-0-0-0-0-0--2-2-2-2-2--4-4-4-4-4-4-4------|
D|-0-0-0-0-0--2-2-2-2-2--4-4-4-4-4-4-4------|

Play this third time round instead of above.

e|-------------------------------------------------------------------|
B|-------------------------------------------------------------------|
G|-------------------------------------------------------------------|
D|-0-0-0-0-0--2-2-2-2-2--7-7-7-7-7--0-0-0-0-0-0-0-0-0--2-2-2-2-2--4--|
A|-0-0-0-0-0--2-2-2-2-2--7-7-7-7-7--0-0-0-0-0-0-0-0-0--2-2-2-2-2--4--|
D|-0-0-0-0-0--2-2-2-2-2--7-7-7-7-7--0-0-0-0-0-0-0-0-0--2-2-2-2-2--4--|

solo --

e|----------------------------------------------------------------|
B|----------------------------------------------------------------|
G|--------4-6-4-------------4-------------2-4-2-------------------|
D|-4-6-7---------7-6-4-6-7----4----2-4-6---------6-4-2~-----------|
A|----------------------------------------------------------------|
D|----------------------------------------------------------------|

e|----------------------------------------------------------------|
B|----------------------------------------------------------------|
G|--------4-6-4-------------4-------------2-4-2-------------------|
D|-4-6-7---------7-6-4-6-7----4----2-4-6---------6-4--------------|
A|----------------------------------------------------------------|
D|----------------------------------------------------------------|

Straight into this -

e|----------------------------------------------|
B|----------------------------------------------|
G|----------------------------------------------|
D|-6-4-6-0-6-4-6-0-6-4-6-4\---------------------|
A|-6-4-6-0-6-4-6-0-6-4-6-4\---------------------|
E|-6-4-6-0-6-4-6-0-6-4-6-4\---------------------|


Breakdown --

e|-00--0--0-0----|
B|-22--2--2-2----|
G|---------------|
D|---------------|
A|---------------|
D|---------------|

Chorus ----

e|------------------------------------------|
B|------------------------------------------|
G|------------------------------------------|x2
D|-0-0-0-0-0--2-2-2-2-2--4-4-4-4-4-4-4------|
A|-0-0-0-0-0--2-2-2-2-2--4-4-4-4-4-4-4------|
D|-0-0-0-0-0--2-2-2-2-2--4-4-4-4-4-4-4------|

Play this third time round instead of above.

e|-------------------------------------------------------------------------|
B|-------------------------------------------------------------------------|
G|-------------------------------------------------------------------------|
D|-0-0-0-0-0--2-2-2-2-2--7-7-7-7-7--0-0-0-0-0-0-0-0-0--2-2-2-2-2--4-4-4-4--|
A|-0-0-0-0-0--2-2-2-2-2--7-7-7-7-7--0-0-0-0-0-0-0-0-0--2-2-2-2-2--4-4-4-4--|
D|-0-0-0-0-0--2-2-2-2-2--7-7-7-7-7--0-0-0-0-0-0-0-0-0--2-2-2-2-2--4-4-4-4--|

e|------------------------------------------|
B|------------------------------------------|
G|------------------------------------------|x2
D|-0-0-0-0-0--2-2-2-2-2--4-4-4-4-4-4-4------|
A|-0-0-0-0-0--2-2-2-2-2--4-4-4-4-4-4-4------|
D|-0-0-0-0-0--2-2-2-2-2--4-4-4-4-4-4-4------|

e|-------------------------------------------------------------------------|
B|-------------------------------------------------------------------------|
G|-------------------------------------------------------------------------|
D|-0-0-0-0-0--2-2-2-2-2--7-7-7-7-7--0-0-0-0-0-0-0-0-0--2-2-2-2-2--4-4-4-4--|
A|-0-0-0-0-0--2-2-2-2-2--7-7-7-7-7--0-0-0-0-0-0-0-0-0--2-2-2-2-2--4-4-4-4--|
D|-0-0-0-0-0--2-2-2-2-2--7-7-7-7-7--0-0-0-0-0-0-0-0-0--2-2-2-2-2--4-4-4-4--|

e|------------------------------------------|
B|------------------------------------------|
G|------------------------------------------|x2
D|-0-0-0-0-0--2-2-2-2-2--4-4-4-4-4-4-4------|
A|-0-0-0-0-0--2-2-2-2-2--4-4-4-4-4-4-4------|
D|-0-0-0-0-0--2-2-2-2-2--4-4-4-4-4-4-4------|

Outro ----

e|---------------------|
B|---------------------|
G|---------------------|
D|--4-4-4-4-4-4-4------|
A|--4-4-4-4-4-4-4------|
D|--4-4-4-4-4-4-4------|


e|-00--0--0-0----|
B|-22--2--2-2----|
G|---------------|
D|---------------|
A|---------------|
D|---------------|

e|------------------|
B|------------------|
G|------------------|
D|-4\---------------|
A|-4\---------------|
E|-4\---------------|

Please give me feedback if you think its wrong in places.

Cheers


| /  slide up
| \  slide down
| h  hammer-on
| p  pull-off
| ~  vibrato
| +  harmonic
| x  Mute note
============================================================================    

Added On December 4th, 2013

SHARE

Comments

blog comments powered by Disqus

VERSIONS

ADVERTISEMENT