Billy Talent Tabs

Devil In A Midnight Mass

4 versions

TAB

            Devil In A Midnight Mass Tab by Billy Talent


-------------------------------------------------------------------------------
                     DEVIL IN A MIDNIGHT MASS - Billy Talent
-------------------------------------------------------------------------------
Tabbed by: Barry Miles
Email: shoebox_of_lies@hotmail.com 

Updated, 99% sure it's perfect.

Gtr I (D A D G B E) - 'Ian D'Sa' (With Compressor)

Tempo 180, 4/4 timing

INTRO
(Volume low)
|-------|-----------------|-----------------|-----------------|-----|
|-------|-----------------|-----------------|-----------------|-----|
|-------|-----------------|-----------------|-----------------|-----|
|-------|-----------------|-----------------|-----------------|-----|
|-------|-5-----------8---|-7---------------|-5-----------8---|-7---|
|-5-7-8-|---0-8-0-7-0---0-|---0-7-3-0-5-7-8-|---0-8-0-7-0---0-|---0-|

(Volume high)                                      x4
|-------------||------------------|------------------||
|-------------||o-----------------|-----------------o||
|-------------||------------------|------------------||
|-------------||------------------|------------------||
|-------------||o-5-----------8---|-7---------------o||
|-7-3-0-5-7-8-||----0-8-0-7-0---0-|---0-7-3-0-5-7-8--||

VERSE
                     1.,2.,3.             4.
||------------------|-------------------||-----------------|
||o-----------------|------------------o||-----------------|
||------------------|-------------------||-----------------|
||------------------|-------------------||-----------------|
||o-0---------------|------------------o||--------------3--|
||--0---------------|------7-3-0-5-7-8--||----7-3-0-5-7----|

PRECHORUS
(Clean with slight Overdrive)     (Distortion with compressor)            x2
||-1--------------|-0-----------------|-------------------|-----------------||
||-3--------------|-2-----------------|-------------------|----------------o||
||-0--------------|-0-----------------|-------------------|-----------------||
||-3--------------|-2-----------------|-------------------|-----------------||
||-1--------------|-0-----------------|-------------8---7-|-------------3--o||
||----------------|-----------------0-|-----8-0-7-0---0---|-0-7-3-0-5-7-----||

(Clean with slight Overdrive)                                  
|-1--------|-0--------|----------|----------|
|-3--------|-2--------|-3--------|-6--------|
|-0--------|-0--------|-2--------|-5--------|
|-3--------|-2--------|-0--------|-3--------|
|-1--------|-0--------|-0--------|-3--------|
|----------|----------|-0--------|-3--------|

                          (Distortion with compressor)
|-1--------|-0--------|-----------------|
|-3--------|-2--------|-----------------|
|-0--------|-0--------|-----------------|
|-3--------|-2--------|-----------------|
|-1--------|-0--------|-----------------|
|----------|----------|-----7-3-0-5-7-8-|

CHORUS
|-----------------|-----------------|----------------|----------------|
|-----------------|-----------------|-5--5-5---5-5---|-5-5---5-5---5--|
|-7---7-7---7-7---|-7-7---7-7---7---|-5--5-5---5-5---|-5-5---5-5---5--|
|-0---0-0---0-0---|-0-0---0-0---0---|-3--3-3---3-3---|-3-3---3-3---3--|
|-5---5-5---5-5---|-5-5---5-5---5---|-3--3-3---3-3---|-3-3---3-3---3--|
|-0---0-0---0-0---|-0-0---0-0---0---|-3--3-3---3-3---|-3-3---3-3---3--|

|-6--6-6---6-6---|-6-6---6-6---6-|----------------------|-----------------|
|-8--8-8---8-8---|-8-8---8-8---8-|-11--11-11---11-11-11-|-----------------|
|-7--7-7---7-7---|-7-7---7-7---7-|-10--10-10---10-10-10-|-9---------------|
|-5--5-5---5-5---|-5-5---5-5---5-|--8---8--8----8--8--8-|-7---------------|
|-5--5-5---5-5---|-5-5---5-5---5-|--8---8--8----8--8--8-|-7---------------|
|-5--5-5---5-5---|-5-5---5-5---5-|--8---8--8----8--8--8-|-7--7-3-0-5-7-8--|

|----------------|-----------------|----------------|----------------|
|----------------|-----------------|-5--5-5---5-5---|-5-5---5-5---5--|
|-7--7-7---7-7---|-7-7---7-7---7---|-5--5-5---5-5---|-5-5---5-5---5--|
|-0--0-0---0-0---|-0-0---0-0---0---|-3--3-3---3-3---|-3-3---3-3---3--|
|-5--5-5---5-5---|-5-5---5-5---5---|-3--3-3---3-3---|-3-3---3-3---3--|
|-0--0-0---0-0---|-0-0---0-0---0---|-3--3-3---3-3---|-3-3---3-3---3--|

|-------------------|-----------------|-------------------------|-------------------|
|-11--11---10--10---|-8--8------------|-------------------------|-------------------|
|-12--12---10--10---|-9--9---12--12---|-10-10-10-10-10-10-10-10-|-10-10-------------|
|-12--12---10--10---|-9--9---10--10---|--8--8--8--8--8--8--8--8-|--8--8-------------|
|-10--10----8---8---|-7--7---10--10---|--8--8--8--8--8--8--8--8-|--8--8-------------|
|-------------------|--------10--10---|--8--8--8--8--8--8--8--8-|--8--8-7-3-0-5-7-8-|

INTERLUDE
|-------------------|-----------------|-----------------|-----------------|
|-------------------|-----------------|-----------------|-----------------|
|-------------------|-----------------|-----------------|-----------------|
|----------------|-----------------|-----------------|-----------------|
|--5------------8---|-7---------------|-5-----------8---|-7---------------|
|-----0-8-0-7-0---0-|---0-7-3-0-5-7-8-|---0-8-0-7-0---0-|---0-7-3-0-5-7-8-|

VERSE

PRECHORUS

CHORUS

BRIDGE
(Volume Low)                                                               6x
|-------------------|-----------------||------------------|------------------||
|-------------------|-----------------||o-----------------|-----------------o||
|-------------------|-----------------||------------------|------------------||
|----------------|-----------------||------------------|------------------||
|--5------------8---|-7---------------||o-5-----------8---|-7---------------o||
|-----0-8-0-7-0---0-|---0-7-3-0-5-7-8-||----0-8-0-7-0---0-|---0-7-3-0-5-7-8--||

                                    (Volume High)                     8x
|-----------------|--------------||------------------|------------------||
|-----------------|--------------||o-----------------|-----------------o||
|-----------------|--------------||------------------|------------------||
|-----------------|--------------||------------------|------------------||
|-5-----------8---|-7------------||o-5-----------8---|-7---------------o||
|---0-8-0-7-0---0-|--------------||----0-8-0-7-0---0-|---0-7-3-0-5-7-8--||    

Added On December 4th, 2013

SHARE

Comments

blog comments powered by Disqus