Black Keys Tabs

No Trust

1 versions

TAB

            i dont have my guitar with me @the moment-doing this from memory bear w/me.
(let these 1st notes ring out)
---------------------------------
---------------------------------
---------------------------------
-----------3----3h5----------3-5-
------5--------------------5-----
3------------------------3-------

#1)-----------------------------------
   -------------------3-3-5-5-3-3-----
   -------------------3-3-5-5-3-3-----
   ----------3-3--5-5-3-3-5-5-3-3-----
   -----5-5---------------------------
   -3-3---------------------------1-1-

#2)-----------------------3-----3--------
   -----------------------3-----3--------
   --------------------5b----5b----5p3---
   ----------3-3--5-5--------------------
   -----5-5------------------------------
   -3-3----------------------------------

#3)--------------------------------------
   -------------------3-5-3-5s6s5-3------
   -------------------3-5-3-5s6s5-3------
   ----------3-3--5-5-3-5-3-5s6s5-3------
   -----5-5------------------------------
   -3-3------------------------------1---

(Play that for awhile, then when lyics start play #1 with them)

"aint got no trust"...(repeat)  "and she aint got trust in you"
------------------------          ------------------------
------------------------          ------------------------
-5br-3-5-3--------------          -5br-3-5-3--------------
-----------5-5-0--5-3-5-          -----------5-3~---------
------------------5-3-5-          ------------------------
------------------3-1-3-          ------------------------

~then go back 'n' play #1,2&3 again~
~also, not sure bout the part that goes...
   "she wants you to hold her @ night when shes lonely and blue"
 but i think you can just play a G over it & go back to #1 when he says blue    

Added On December 16th, 2013

SHARE

Comments

blog comments powered by Disqus

ADVERTISEMENT