Boxcar Racer Tabs

Elevator

7 versions

TAB

            Elevator Tab by Boxcar Racer


-------------------------------------------------------------------------------
			     Elevator - Boxcar Racer
-------------------------------------------------------------------------------
Tabbed by: BrokenTradition
Email: cky2k9999@aol.com
Tuning: Standard

This song is all the same pattern over and over. It's pretty simple. It's
basically getting the rythm and timing down. I am almost positive this isn't
correct, but it sounds the same and it pretty kool. Please email me if you ahve
any suggestions or whatever.


e|------------------------------------------------------------------------|
B|--------------0---------------0-----------------------------------------|
G|--------------0---------------0-----------------------------------------|
D|--5---5---5---5---5---5---5---5---5---5---5-----------------------------|
A|------------------------------------------------------------------------|
E|--3---3---3---3---3---3---3---3---3---3---3-----------------------------|
                                  then. . .
e|------------------------------------------------------------------------|
B|------------------------------------------------------------------------|
G|------------------------------------------------------------------------|
D|--9---9---9---9---9---9---9-----7---7---7---7---7---7---7---------------|
A|------------------------------------------------------------------------|
E|--7---7---7---7---7---7---7-----5---5---5---5---5---5---5---------------|
                                and again. . .
e|------------------------------------------------------------------------|
B|--------------0---------------0-----------------------------------------|
G|--------------0---------------0-----------------------------------------|
D|--5---5---5---5---5---5---5---5---5---5---5-----------------------------|
A|------------------------------------------------------------------------|
E|--3---3---3---3---3---3---3---3---3---3---3-----------------------------|
                                and so on. . .
e|------------------------------------------------------------------------|
B|------------------------------------------------------------------------|
G|------------------------------------------------------------------------|
D|--9---9---9---9---9---9---9-----7---7---7---7---7---7---7---------------|
A|------------------------------------------------------------------------|
E|--7---7---7---7---7---7---7-----5---5---5---5---5---5---5---------------|

  thats the song keep playing this throughout the whole song. its most likely
worng but hey as long as it sounds good....
email me.    

Added On December 4th, 2013

SHARE

Comments

blog comments powered by Disqus

VERSIONS

ADVERTISEMENT