Boys Night Out Tabs

Yeah No I Know

1 versions

TAB

            Yeah No I Know Tab by Boys Night Out


----------------------------------------------------------------------------
			     Yeah, no...I know - Boys Night Out
----------------------------------------------------------------------------
America, Boysnightout.com
Tabbed by:Ash Bidad	
Email:ashleybidad1@hotmail.com

Tuning:EADGBe

  "Someone call an ambulance cause somethings not right"
e|-------------------------------------------------------------------------|
B|-------------------------------------------------------------------------|
G|-------------------------------------------------------------------------|
D|-------------6--11-6--4-4--------4---------------------------------------|
A|------4h6-4---------------4-------------2h4------------------------------
E|------------------------------2-------2----------------------------------
  (Listen for timing)
e|-------------------------------------------------------------------------|
B|-------------------------------------------------------------------------|
G|-6--6--6--6--------------------------------------------------------------|
D|-6--6--6--6--4--4--4--4--------------------------------------------------|
A|-4--4--4--4--4--4--4--4--------------------------------------------------|
E|-------------2--2--2--2--------------------------------------------------|

e|-x--x--x--x--------------------------------------------------------------|
B|-x--x--x--x--------------------------------------------------------------|
G|-x--x--x--x--------------------------------------------------------------|
D|-x--x--x--x---11-11-11-13--13--13---4--4--4--9--9--9---------------------|
A|-x--x--x--x---11-11-11-13--13--13---4--4--4--9--9--9---------------------|
E|-x--x--x--x---9--9--9--11--11--11---6--6--6--7--7--7---------------------|
  
  PALM MUTED:   

e|-------------------------------------------------------------------------|
B|-------------------------------------------------------------------------|
G|-------------------------------------------------------------------------|
D|-x-x-x-x-x-x-------------------------------------------------------------|
A|-x-x-x-x-x-x-------------------------------------------------------------|
E|-0-0-0-0-0-0-------------------------------------------------------------|

Then back to the original riff.    

Added On December 4th, 2013

SHARE

Comments

blog comments powered by Disqus

ADVERTISEMENT