Buckethead Tabs

Pure Imagination

4 versions

TAB

            Pure Imagination Tab by Buckethead


This is how Buckethead plays Pure Imagination live and how it is on the Giant Robot CD.
There may be 1 or 2 notes wrong but other than that it's identical to how he does it live.
e--------------------------------|
b-----------------7-8-7-8-7-8-7--|
g-----7-----7-------------------7|
d---5-----5-----5----------------|
a-7-----7-----7------------------|
e-----------------0--------------|
come with me...

e--------------------------------|
b--------------------------------|
g-----4-5-7-4-2------------------|
d---5-----------5-4-5-4-5-4-5-4--|
a-7-----------------------------5|
e--------------------------------|
take a look...

e-3-5-3-5-3-3-2----|---------------|
b---------------3--|0-1-0-1-0-----3|
g-----------------4|------------4--|
d------------------|----------5----|
a-3-----------2----|0--------------|
e------------------|---------------|
if you want to view...

e-2-3-2-3-2---0-2|-0-2-0-2-0-0-2-3-4-5|
b-----------2----|--------------------|
g-4-----------4--|--------------------|
d----------------|-----------2-4-5-6-7|
a----------------|--------------------|
e----------------|--------------------|
anything you want to....    

Added On December 4th, 2013

SHARE

Comments

blog comments powered by Disqus

VERSIONS

ADVERTISEMENT