Buckethead Tabs

Wishing Well

2 versions

TAB

            Tabbed by: sirpatrick3/jesevil

Tuning: Eb G# C# F# Bb Eb
        (half-step down)

e|-5--5--x--3--3--2--------x--x--5--5--x---3--3--5--3--2--3--2--0-----------|
B|-3--3--x--1--------3--0--x--x--3--3--x---1--------------------------------|
G|-x--x--x--0--------------x--x--x--x--x---0--------------------------------|
D|-4--4--x--2--------------x--x--4--4--x---2--------------------------------|
A|-5--5--x--3--------------x--x--5--5--x---3--------------------------------|
E|--------------------------------------------------------------------------|
   
e|--------------------------------------------------------------------------|
B|--------------------------------------------------------------------------|
G|--------------------------------------------------------------------------|
D|-5--x--4--x--0--0--0--0--0---------7--7--7--7--h--9--9--9--9--9--9--9--9--|
A|-7--x--7--x--5--5--5--5--5--5-s-7--7--7--7--7--7--7--7--7--7--7--7--7--7--|
E|-0--0--0--0--0--0--0--0--0--0---0--0--0--0--0--0--0--0--0--0--0--0--0--0--|

e|--------------------------------------------------------------------------|
B|--------------------------------------------------------------------------|
G|--------------------------------------------------------------------------|
D|-x--x--5--5--5--x--4--4--4--4--4--4--4--h--5--5--5--5--5--5--5--5--x--x---|
A|-x--x--3--3--3--x--3--3--3--3--3--3--3--3--3--3--3--3--3--3--3--3--x--x---|
E|-0--0--0--0--0--0--0--0--0--0--0--0--0--0--0--0--0--0--0--0--0--0--0--0---|

e|--------------------------------------------------------------------------|
B|--------------------------------------------------------------------------|
G|--------------------------------------------------------------------------|
D|-5--x--4--x--0--0--0--0--0---------7--7--7--7--h--9--9--9--9--9--9--9--9--|
A|-7--x--7--x--5--5--5--5--5--5-s-7--7--7--7--7--7--7--7--7--7--7--7--7--7--|
E|-0--0--0--0--0--0--0--0--0--0---0--0--0--0--0--0--0--0--0--0--0--0--0--0--|
  
e|--------------------------------------------------------------------------|
B|--------------------------------------------------------------------------|
G|--------------------------------------------------------------------------|
D|-x--x--5--5--5--x--4--4--4--4--4--4--4--h--5--5--5--5--5--5--5--5--x--x---|
A|-x--x--3--3--3--x--3--3--3--3--3--3--3--3--3--3--3--3--3--3--3--3--x--x---|
E|-0--0--0--0--0--0--0--0--0--0--0--0--0--0--0--0--0--0--0--0--0--0--x--x---|

e|----5--5--5--5-----3--3--3--3--3--3-----------5--5--5--5--3--3--3--3--3---|
B|----3--3--3--3-----1--1--1--1--1--1-----------3--3--3--3--1--1--1--1--1---|
G|----x--x--x--x-----0--0--0--0--0--0-----------x--x--x--x--0--0--0--0--0---|
D|----4--4--4--4-----2--2--2--2--2--2-----------4--4--4--4--4--4--4--4--4---|
A|-2--2--2--2--2--x--3--3--3--3--3--3--x--x--2--2--2--2--2--2--2--2--2--2---|
E|--------------------------------------------------------------------------|

e|---------0--0--0--0--x--x--0--0--x--0--0--0--0--0--0---|
B|---------0--0--0--0--x--x--3--3--x--1--1--1--1--1--1---|
G|---------0--0--0--0--x--x--x--x--x--0--0--0--0--0--0---|
D|-2-------2--2--2--2--x--x--4--4--x--2--2--2--2--2--2---|
A|-2---2---2--2--2--2--x--x--5--5--x--3--3--3--3--3--3---|
E|-0---0--(0)--------------------------------------------|    

Added On December 16th, 2013

SHARE

Comments

blog comments powered by Disqus

VERSIONS

ADVERTISEMENT