TAB

            ffs finally submitted properly sorry bout other copies


hey this is a great song even better to learn
plz rate 
for any changes just email zombie_boy_5@hotmail.com




Only Lead Part (gtr.2)


Intro x1

[-------------------------------------------------------------------------]
[-------------------------------------------------------------------------]
[-------------------------------------------------------------------------]
[---------------------------0---------------------------------------------]
[---------0--0--0-0000------0---------------------------------------------]
[---------0--0--0-0000------0---------------------------------------------]
pm ...................






      play this bit x6                                after x3 play this
[----------------------------------------------|---------------------------]
[----------------------------------------------|---------------------------]
[----------------------------------------------|--1010101010--9---77777--5-]
[-----10---9----7----------------0-------------|--1010101010--9---77777--5-]
[---------------------9----10----0-------------|--8-8-8-8-8---7---55555--5-]
[--00---00---00---00----00---00--0-------------|---------------------------]
pm...   ..   ..   ..    ..   ..                       ..........      .....






x4

[-----------------------------------------------------------------------]
[-----------------------------------------------------------------------]
[-----------------------------------------------------------------------]
[------------------------5--7-----------------------7--5----------------]
[---0h6h7h9---0h6h7h9----3--5---0h6h7h9---0h6h7h9---5--3----------------]
[-----------9---------5-----------------9---------5---------------------]







                                           workout timing fairly easy
[------------------------------------------------------------------------]
[--9999999910101010101010------------------------------------------------]
[--9999999910101010101010------------------------------------------------]
[--777777777-7-7-7-7-7-7------///\\\----------10------9------5--------0--]
[--777777777-7-7-7-7-7-7------///\\\------000-8--000--7-0000-3-0000---0--]
[--777777777-7-7-7-7-7-7------///\\\------000----000----0000---0000---0--]
pm                                        ...    ...    ....   ....



[--------------------------]
[-----------part 1---------]
[--------------------------]
[-----10---9----7----5-----]
[-----9----7----5----3--5--]
[--00---00---00---00----3--]
pm...   ..   ..   ..                                            

[-------------------------------------]
[--------part 2-----------------------]
[--------------------------11h13h14---]
[------------------11h13h14-----------]
[----------11h13h14-------------------]
[-10h12h14----------------------------]                                              

[-------part 3---------------]
[----------------------------]
[--1010101010--9---77777--5--]
[--1010101010--9---77777--5--]
[--8-8-8-8-8---7---55555--3--]
[----------------------------]
pm..........      .....

play in this order part 1,2,1,3,1,2,1,3






x4

[------------------------------------------------------------------]
[------------------------------------------------------------------]
[------------------------------------------------------------------]
[------------------------5--7-----------------------7--5-----------]
[---0h6h7h9---0h6h7h9----3--5---0h6h7h9---0h6h7h9---5--3-----------]
[-----------9---------5-----------------9---------5----------------]








                                           workout timing fairly easy
[------------------------------------------------------------------]
[--9999999910101010101010------------------------------------------]
[--9999999910101010101010------------------------------------------]
[--777777777-7-7-7-7-7-7---///\\\-------10------9------5--------0--]
[--777777777-7-7-7-7-7-7---///\\\---000-8--000--7-0000-3-0000---0--]
[--777777777-7-7-7-7-7-7---///\\\---000----000----0000---0000---0--]
pm                                  ...    ...    ....   ....






[--------------------------]
[-----------part 1---------]
[--------------------------]
[-----10---9----7----5-----]
[-----9----7----5----3--5--]
[--00---00---00---00----3--]
pm...   ..   ..   ..                                            

[-------------------------------------]
[--------part 2-----------------------]
[--------------------------11h13h14---]
[------------------11h13h14-----------]
[----------11h13h14-------------------]
[-10h12h14----------------------------]                                              

[-------part 3---------------]
[----------------------------]
[--1010101010--9---77777--5--]
[--1010101010--9---77777--5--]
[--8-8-8-8-8---7---55555--3--]
[----------------------------]
pm..........      .....

play in this order part 1,2,1,3,1,2,1,3






x4

[-----------------------------------------------------------------]
[-----------------------------------------------------------------]
[-----------------------------------------------------------------]
[-----------------------------------------------------------------]
[--10-10-10-10-9-10-10-10-10-9-7-7-7-7-9-7-5-5-5-5----7``--5``----]
[-----------------------------------------------------------------]






solo (with 2 guitars)

gtr.2
[--------------------------------------------------------------------------]
[--------------------------------------------------------------------------]
[--------------------------------------------------------------------------]
[--------------------------------------------------------------------------]
[----------12-8-7-5----------12-8-7-5-----------12-8-7-5----------12-8-7-5-]
[-12-8-7-5----------12-8-7-5-----------12-8-7-5----------12-8-7-5----------]
  T        T        T        T         T        T        T        T

gtr.2
[--------------------------------------------------------------------------]
[--------------------------------------------------------------------------]
[--------------------------------------------------------------------------]
[--------------------------------------------------------------------------]
[----------10-8-7-5----------10-8-7-5----------10-8-7-5-----------10-8-7-5-]
[-10-8-7-5----------10-8-7-5----------10-8-7-5-----------10-8-7-5----------]
  T        T        T        T        T        T         T        T

gtr.2
[----------------------------------------------------------------]
[----------------------------------------------------------------]
[----------------------------------------------------------------]
[----------------------------------------------------------------]
[----------------------------------------------------------------]
[-9b-11b11b11b11-r9-11-13-11-13-14-13-14-16-14-16-18-16-18-19b21-]


gtr.1
[-----------------------------------------------------------------]
[-----------------------------------------------------------------]
[-----------------------------------------------------------------]
[--------------------------------------------19br-17``------------]
[--17-19-20br-19--------------19-20br-19-17-----------------------]
[----------------17-19br-17---------------------------------------]


gtr.2
[-14-16-17--------------------------------------------------------]
[----------14-16-17----------14-16-17-----------------------------]
[-------------------14-15-17----------14-16-17--------------------]
[----------------------------------------------14-16-17-----------]
[-----------------------------------------------------------------]
[-----------------------------------------------------------------]


gtr.2
[-----------------------------------------------------------------]
[-----------------------------------------------------------------]
[-----------------------------------------------------------------]
[-----------------------------------------------------------------]
[---19-20-17``------20-19-````------------------------------------]
[----------------19-----------------------------------------------]


gtr.1
[-----------------------------------------------------------------]
[-----------------------------------------------------------------]
[-----------------------------------------------------------------]
[--------------------------------------------19br-17``------------]
[--17-19-20br-19--------------19-20br-19-17-----------------------]
[----------------17-19br-17---------------------------------------]


gtr.2 (play very fast)
[-11-13-14-------------------------------------14-16-18-----------]
[----------11-13-14-13-14-16----------14-16-18--------------------]
[----------------------------13-14-16-----------------------------]
[-----------------------------------------------------------------]
[-----------------------------------------------------------------]
[-----------------------------------------------------------------]


gtr.2 continued
[-----------------------------------------------------------------]
[---16-18-19------------------------------------------------------]
[------------16-18-19---------------------------------------------]
[----------------------16-18-19-----------------------------------]
[-----------------------------------------------------------------]
[-----------------------------------------------------------------]


gtr.2 continued
[-----------------------------------------------------------------]
[-----------------------------------------------------------------]
[---16-18-19------------------------------------------------------]
[------------16-18-19---------------------------------------------]
[---------------------16-18-19----------19-20-17`-17``````````````]
[-----------------------------------------------------------------]






x2
[-----------------------------------------------------------------]
[-----------------------------------------------------------------]
[-----------------------------------------------------------------]
[------------------------5--7-----------------------7--5----------]
[---0h6h7h9---0h6h7h9----3--5---0h6h7h9---0h6h7h9---5--3----------]
[-----------9---------5-----------------9---------5---------------]




                                           
x6
                                         
[----------------------------------------------------------------]
[--9999999910101010101010----------------------------------------]
[--9999999910101010101010----------------------------------------]
[--777777777-7-7-7-7-7-7---///\\\------10-----9------5------0----]
[--777777777-7-7-7-7-7-7---///\\\--000-8--000-7-0000-3-0000-0----]
[--777777777-7-7-7-7-7-7---///\\\--000----000---0000---0000-0----]
pm                                      ...    ...    ....   ....







x2
outro
[----------------------------------------------------------------]
[----------------------------------------------------------------]
[----------------------------------------------------------------]
[---------10-------9-------5-----------0-------------------------]
[---------8--------7-------3-----------0-------------------------]
[---0000-----0000----0000-----0000-----0-------------------------]    

Added On December 16th, 2013

SHARE

Comments

blog comments powered by Disqus

VERSIONS

ADVERTISEMENT