Carcass Tabs

Firmhand

1 versions

TAB

            Firmhand
(Tune down 2.5 steps to B)

I dont take any credit for this i just copied and pasted for anyone that wants to learn this song. Enjoy!

Thanks again to Mike Driscoll!

Intro:
|-----------------------------|-----------------------------|
|-----------------------------|-----------------------------|
|-----------------------------|-----------------------------|
|-2------2------2------2-3/6--|-----------------------------|
|-0-0000-0-0000-0-0000-0-1/4--|-0-0000-0-0000-0-0000-1-0-1--|
|-----------------------------|-----------------------------|

Verse riff (two guitars):
|-----------------|------------------|
|-----------------|------------------|  (twice)
|-9-----9-----9-9-|-8-----8-----8-8--|
|-7-----7-----7-7-|-7-----7-----7-7--|
|-0-0-0-0-0-0-0---|---0-0---0-0------|
|-----------------|------------------|
|                 |                  |
|-----------------|------------------|
|-----------------|------------------|
|-----------------|------------------|
|-2-----2-----2-2-|-1-----1-----1-1--|
|-0-0-0-0-0-0-0-0-|-0-0-0-0-0-0-0-0--|
|-----------------|------------------|

|---------------------|-----------------|----------------------|
|---------------------|-----------------|----------------------|
|---------------------|-----------------|----------------------|
|-10-----10-----10-10-|-9-----9-----9-9-|-10-----10-----10-10--|
|--8-8-8--8-8-8--8--8-|-8-8-8-8-8-8-8-8-|--8-8-8--8-8-8--8--8--|
|---------------------|-----------------|----------------------|

|----------------------|  then into the next bit...
|----------------------|  ("Firmhand - unnatural selection...")
|-------12---------12--|
|-10-10--9---10-10--9--|
|--8--8--8----8--8--8--|
|----------------------|

|----------------------------------------------------------------------|
|----------------------------------------------------------------------|
|----------------------------------------------------------------------|
|-------7-----7---------8-----8---------11-----11-------------8-----8--|
|----------------------------------------------------------------------|
|-5-555---555---5/6-666---666---6/9-999----999----99/11-6-666---666----|

|---------------------|---------------------|
|--------8------11-10-|--------8------11-10-|
|---9-10---10-9-------|---9-10---10-9-------|
|-7-------------------|-8-------------------|
|---------------------|---------------------|
|---------------------|---------------------|

|----------------------|--------------------|
|---------8------11-10-|--------8-----------|  (this is played twice)
|----9-10---10-9-------|---9-10---10-9-7----|
|-11-------------------|-8---------------10-|
|----------------------|--------------------|
|----------------------|--------------------|

 "Hate is the law... love under will..."
  A5      Ab5 etc.
|----------------|-----------|------------------|------------------|
|----------------|-----------|------------------|------------------|
|-9----9--8------|-----%-----|------------------|----------12------|
|-7----7--7------|-----------|-10----10--9------|-10----10--9------|
|-0----0--0------|-----------|--8-----8--8------|--8-----8--8------|
|----------------|-----------|------------------|------------------|

(during the first two measures shown immediately above, the second
guitar plays A5 Ab5, fingered as x02xxx, x01xxx... it doubles
the chords shown above for the third and fourth measures)

Interlude:
|------------------------------------| (Carlo)
|------------------------------------|
|-----9---10---9-------7---4h5p4-----|
|-7-7---7----7---5---5---5-------7-5-|
|------------------------------------|
|------------------------------------|
|                                    |
|------------------------------------| (Bill)
|-----1--------------------1---------|
|-----0--------------------0---------|
|------------------------------------|
|-0----------------------------------|
|----------------3---3-3-------------|

|------------------------------------|
|---------3--------------------------|
|-----5-------5--------4---7h9p7-----|
|-3-3---3---3----2---2---2-------9---|
|------------------------------------|
|------------------------------------|
|                                    |
|------------------------------------|
|-----1------------------------------|
|-----0--------------------4h5p4p0---|
|------------------------------------|
|------------------------------------|
|-1--------------0---0-0-------------|

Carlo:
|-----------------------------------------------------------|
|-15b17r15---15-13-12h13p12----------------9b10-9~~~--etc.--|
|----------------------------12----9b10r9-------------------|
|-----------------------------------------------------------|
|-----------------------------------------------------------|
|-----------------------------------------------------------|    

Added On December 16th, 2013

SHARE

Comments

blog comments powered by Disqus

ADVERTISEMENT