Carlos Santana Tabs

Into The Night

8 versions

TAB

            ----------------------------------------------------------------------------
		Into The Night - Carlos Santana feat. Chad Kroeger
----------------------------------------------------------------------------
Tabbed by : Vishal Bala
Email : lahsiv55@gmail.com

Okay, this is my first tab, and it's for Santana's best song so far :)
I've just tabbed out the intro and all the little small bits in between. Haven't been 
to tab the solo, seeing as I don't have a wah-wah bar.

Tuning:EADGBe

Intro
e|------------------------------------------------3/5----------------------|
B|-----------------------------------8-10-10p8-----------------------------|
G|--5-5\4--------5-7b8r7p5-------7/9-----------9------7-5-5\---------------|
D|--------7-5--------------7-----------------------------------------------|
A|-------------------------------------------------------------------------|
E|-------------------------------------------------------------------------|

e|-------------------------------------------------------------------------|
B|------5-5/8~-8/10--------------------------------------------------------|
G|----5-------------7~-7~-7~-5/7-7-5p4-------------------------------------|
D|--5----------------------------------7-7/--------------------------------|
A|--0----------------------------------------------------------------------|
E|-------------------------------------------------------------------------|

"How the devil himself, could be pulled outta' me"
e|-------------------------------------------------------------------------|
B|-------------------------------------------------------------------------|
G|--7h9-7------------------------------------------------------------------|
D|--------10-7-------------------------------------------------------------|
A|-------------------------------------------------------------------------|
E|-------------------------------------------------------------------------|

"As she started to dance"
e|-----------8-------------------------------------------------------------|
B|--7h8h10-----10----------------------------------------------------------|
G|---------9---------------------------------------------------------------|
D|-------------------------------------------------------------------------|
A|-------------------------------------------------------------------------|
E|-------------------------------------------------------------------------|

"Keeping time with their hands"
e|-------------------------------------------------------------------------|
B|-----7-8-8-10~-----------------------------------------------------------|
G|--/9---------------------------------------------------------------------|
D|-------------------------------------------------------------------------|
A|-------------------------------------------------------------------------|
E|-------------------------------------------------------------------------|

"Like the angels sing"
e|----8888-----------------------------------------------------------------|
B|--8------10~-------------------------------------------------------------|
G|-------------------------------------------------------------------------|
D|-------------------------------------------------------------------------|
A|-------------------------------------------------------------------------|
E|-------------------------------------------------------------------------|

"Danced on into the night"
e|-------8-8------8\-------8-8------8/10/----------------------------------|
B|--8-10-----10-8-----8-10-----10-8----------------------------------------|
G|-------------------------------------------------------------------------|
D|-------------------------------------------------------------------------|
A|-------------------------------------------------------------------------|
E|-------------------------------------------------------------------------|

"Danced on into the night"
e|-------------------------------------------------------------------------|
B|--13b15-13p12------------------------------------------------------------|
G|--------------14-14p12---------------------------------------------------|
D|-----------------------14------------------------------------------------|
A|-------------------------------------------------------------------------|
E|-------------------------------------------------------------------------|

"From the look on our faces"
e|-------------------------------------------------------------------------|
B|--7h9p7----7h9-7b8-------------------------------------------------------|
G|--------10---------10-7--------------------------------------------------|
D|-------------------------------------------------------------------------|
A|-------------------------------------------------------------------------|
E|-------------------------------------------------------------------------|

"Room to move, in between you and I"
e|--15-14-----------------16b17-14---------------------------------------------------|
B|--------17-15-171517-------------17-17-15-15-------15--17--------------------------|
G|---------------------------------------------17-17-----16b17-14-16-17-16-14--------|
D|-----------------------------------------------------------------------------------|
A|-----------------------------------------------------------------------------------|
E|-----------------------------------------------------------------------------------|

"Like the angels sing"
e|----8888-----------------------------------------------------------------|
B|--8------10~-------------------------------------------------------------|
G|-------------------------------------------------------------------------|
D|-------------------------------------------------------------------------|
A|-------------------------------------------------------------------------|
E|-------------------------------------------------------------------------|

"Danced on into the night"
e|--15-14-12-------12-12---------------------------------------------------|
B|-----------15-15---------------------------------------------------------|
G|-------------------------------------------------------------------------|
D|-------------------------------------------------------------------------|
A|-------------------------------------------------------------------------|
E|-------------------------------------------------------------------------|

e|-------8-8------8\-------8-8------8/10/----------------------------------|
B|--8-10-----10-8-----8-10-----10-8----------------------------------------|
G|-------------------------------------------------------------------------|
D|-------------------------------------------------------------------------|
A|-------------------------------------------------------------------------|
E|-------------------------------------------------------------------------|

"Danced on into the night"
e|-------------------------------------------------------------------------|
B|--13b15-13p12------------------------------------------------------------|
G|--------------14-14p12---------------------------------------------------|
D|-----------------------14------------------------------------------------|
A|-------------------------------------------------------------------------|
E|-------------------------------------------------------------------------|

e|-------8-8------8\-------8-8------8/10-----------------------------------|
B|--8-10-----10-8-----8-10-----10-8------10--------------------------------|
G|-------------------------------------------------------------------------|
D|-------------------------------------------------------------------------|
A|-------------------------------------------------------------------------|
E|-------------------------------------------------------------------------|

"Danced on into the night"
e|-------------------------------------------------------------------------|
B|--13b15-13p12------------------------------------------------------------|
G|--------------14-14p12---------------------------------------------------|
D|-----------------------14------------------------------------------------|
A|-------------------------------------------------------------------------|
E|-------------------------------------------------------------------------|

 - SOLO (not tabbed yet)

"Every soul in the room, keeping time with their hands"
e|--14b15--14-12----12----12-11b12-----------------------------------------|
B|---------------15----15--------------------------------------------------|
G|-------------------------------------------------------------------------|
D|-------------------------------------------------------------------------|
A|-------------------------------------------------------------------------|
E|-------------------------------------------------------------------------|

"Like the angels sing"
e|----8888-----------------------------------------------------------------|
B|--8------10~-------------------------------------------------------------|
G|-------------------------------------------------------------------------|
D|-------------------------------------------------------------------------|
A|-------------------------------------------------------------------------|
E|-------------------------------------------------------------------------|

"Danced on into the night"
e|---12----12-12-12--12----12-12-12--12----12-12-12--14b15-----------------|
B|---16b17-----------16b17-----------16b17-----------------15-13-----------|
G|-------------------------------------------------------------------------|
D|-------------------------------------------------------------------------|
A|-------------------------------------------------------------------------|
E|-------------------------------------------------------------------------|

e|-------8-8------8\-------8-8------8/10/----------------------------------|
B|--8-10-----10-8-----8-10-----10-8----------------------------------------|
G|-------------------------------------------------------------------------|
D|-------------------------------------------------------------------------|
A|-------------------------------------------------------------------------|
E|-------------------------------------------------------------------------|

"Danced on into the night"
e|-------------------------------------------------------------------------|
B|--13b15-13p12------------------------------------------------------------|
G|--------------14-14p12---------------------------------------------------|
D|-----------------------14------------------------------------------------|
A|-------------------------------------------------------------------------|
E|-------------------------------------------------------------------------|

e|-------8-8------8\-------8-8------8/10-----------------------------------|
B|--8-10-----10-8-----8-10-----10-8------10--------------------------------|
G|-------------------------------------------------------------------------|
D|-------------------------------------------------------------------------|
A|-------------------------------------------------------------------------|
E|-------------------------------------------------------------------------|

e|--/15--17-15-17-15-17-15-17-15-17-20b22-20-17----------------------------|
B|-------------------------------------------------------------------------|
G|-------------------------------------------------------------------------|
D|-------------------------------------------------------------------------|
A|-------------------------------------------------------------------------|
E|-------------------------------------------------------------------------|

"Danced on into the night"
e|-------------------------------------------------------------------------|
B|--13b15-13p12------------------------------------------------------------|
G|--------------14-14p12---------------------------------------------------|
D|-----------------------14~~/---------------------------------------------|
A|-------------------------------------------------------------------------|
E|-------------------------------------------------------------------------|
| /  slide up
| \  slide down
| h  hammer-on
| p  pull-off
| ~  vibrato
| +  harmonic
| x  Mute note
===============================================================================    

Added On December 16th, 2013

SHARE

Comments

blog comments powered by Disqus