Cartel Tabs

No Subject

1 versions

TAB

            -------------------------------------------------------------------------------
			     No Subject (Come with Me) - Cartel
-------------------------------------------------------------------------------
Tabbed by: Deviouster
Email: deviouster@gmail.com

Tuning: Drop D, Half step down (Db Ab Db Gb Bb Eb)

Notes: the 776 chord may seem a bit off, but it's only an A5 power chord without
the root note, with an added note. It sounds perfect. Finger it with the shape of
a power chord, but instead of holding down the top string, mute it. It sounds abs-
olutely perfect, maybe I'll put up a video on youtube showing that it indeed sou-
nds right.

The bridge has the right chords but I believe is missing one. Either way, it sounds decent. Enjoy!

Verse x4
e|-------------------------------------------------------------------x-------|
B|-------------------------------------------------------------------3-------|
G|--6666666666666666-------------------------------------------------2-------|
D|--7777777777777777--555-77--9999999--77----On the last time, do----0--x6---|
A|--7777777777777777--555-77--9999999--77----------------------------x-------|
E|--------------------555-77--9999999--77----------------------------x-------|

Chorus x1
e|---------------------------------------------------------------------------|
B|---------------------------------------------------------------------------|
G|---6666-----------6666-----------6666-----------6666-----------------------|
D|---7777--5555555--7777--5555555--7777--5555555--7777--5555555--------------|
A|---7777--5555555--7777--5555555--7777--5555555--7777--5555555--------------|
E|---------5555555--------5555555--------5555555--------5555555--------------|

e|---------------------------------------------------------------------------|
B|---------------------------------------------------------------------------|
G|---------------------------------------------------------------------------|
D|-777777777777-555555555555-777777777777-555555555555-777777777777----------|
A|-777777777777-555555555555-777777777777-555555555555-777777777777----------|
E|-777777777777-555555555555-777777777777-555555555555-777777777777----------|

e|---------------------------------------------------------------------------|
B|---------------------------------------------------------------------------|
G|---------------------------------------------------------------------------|
D|-555555555555-777777777777-555555555555-7----------------------------------|
A|-555555555555-777777777777-555555555555-7----------------------------------|
E|-555555555555-777777777777-555555555555-7----------------------------------|

Verse x4
e|-------------------------------------------------------------------x-------|
B|-------------------------------------------------------------------3-------|
G|--6666666666666666-------------------------------------------------2-------|
D|--7777777777777777--555-77--9999999--77----On the last time, do----0--x6---|
A|--7777777777777777--555-77--9999999--77----------------------------x-------|
E|--------------------555-77--9999999--77----------------------------x-------|

Chorus
e|--------------------------------------------------------------|------------|
B|--------------------------------------------------------------|---[1:34]---|
G|---6666-----------6666-----------6666-----------6666----------|------------|
D|---7777--5555555--7777--5555555--7777--5555555--7777--5555555-|--77777777--|
A|---7777--5555555--7777--5555555--7777--5555555--7777--5555555-|--77777777--|
E|---------5555555--------5555555--------5555555--------5555555-|--77777777--|

Bridge [1:37]
e|---------------------------------------------------------------------------|
B|---------------------------------------------------------------------------|
G|---------------------------------------------------------------------------|
D|-555555555555-777777777777-555555555555-777777777777-555555555555----------|
A|-555555555555-777777777777-555555555555-777777777777-555555555555----------|
E|-555555555555-777777777777-555555555555-777777777777-555555555555----------|

e|--------------------------------------------------------------|
B|--------------------------------------------------------------|
G|--------------------------------------------------------------|
D|--777777777777-555555555555-777777777777-55555--77777---------|
A|--777777777777-555555555555-777777777777-55555--77777---------|
E|--777777777777-555555555555-777777777777-55555--77777---------|
[2:02]
e|--------------------|
B|--------------------|
G|---666666666-xx-----|
D|---666666666-xx-----|
A|---777777777-xx-----|
E|--------------------|

Chorus x1 [2:05]
e|---------------------------------------------------------------------------|
B|---------------------------------------------------------------------------|
G|---6666-----------6666-----------6666-----------6666-----------------------|
D|---7777--5555555--7777--5555555--7777--5555555--7777--5555555--------------|
A|---7777--5555555--7777--5555555--7777--5555555--7777--5555555--------------|
E|---------5555555--------5555555--------5555555--------5555555--------------|

e|---------------------------------------------------------------------------|
B|---------------------------------------------------------------------------|
G|---------------------------------------------------------------------------|
D|-777777777777-555555555555-777777777777-555555555555-777777777777----------|
A|-777777777777-555555555555-777777777777-555555555555-777777777777----------|
E|-777777777777-555555555555-777777777777-555555555555-777777777777----------|


e|---------------------------------------------------------------------------|
B|---------------------------------------------------------------------------|
G|---------------------------------------------------------------------------|
D|-555555555555-777777777777-555555555555-7~~--------------------------------|
A|-555555555555-777777777777-555555555555-7~~--------------------------------|
E|-555555555555-777777777777-555555555555-7~~--------------------------------|



|
===============================================================================    

Added On December 16th, 2013

SHARE

Comments

blog comments powered by Disqus

ADVERTISEMENT