Cocorosie Tabs

Good Friday

1 versions

TAB

            Good Friday Tab by Cocorosie


Good Friday
CocoRosie
La Maison de Mon Rêve
Tabbed by Howard
witmachine@yahoo.com


Tuning: Standard, Capo on 1st

e|--------0--------0--------0--------0--------1--------1--------1--------1---|
B|--------1--------1--------0--------0h1------1--------1--------1--------1---|
G|-----0--------0--------0--------0--------2--------2--------2--------2------|
D|-----------2-----------------2-----------------0-----------------0---------|
A|--3-----------------2-----------------0-----------------0------------------|
E|---------------------------------------------------------------------------|

e|--------0--------------------0--------0--------0--------0------------------|
B|--------1--------------------0--------0--------1--------1------------------|
G|-----0--------0-----0-----2--------2--------2--------2---------------------|
D|--------------------------------2--------2--------2------------------------|
A|--3--------3-----2-----0---------------------------------------------------|
E|---------------------------------------------------------------------------|

Note: This isn’t in Standard A=440 tuning, it’s seems like it was slowed down 
so if you want to play along with the record you’d have to adjust the strings.    

Added On December 4th, 2013

SHARE

Comments

blog comments powered by Disqus

ADVERTISEMENT