Cocorosie Tabs

Terrible Angels

1 versions

TAB

            Terrible Angels Tab by Cocorosie


-------------------------------------------------------------------------------
			     Terrible Angels - CocoRosie
-------------------------------------------------------------------------------
Tabbed by:HiPpIe dUdE
Email:besilix@hotmail.com

Tuning: 1 1/2 step down

dis is actually a pretty easy song, da hard thing to figure out really is
da tuning....its not exactly 1 1/2 step down, but its pretty close to it,
so just try finding it from dere!

Intro/Chorus/Verse
    C         Am        D         Fmaj7
e|-----0---------0----0----2----2----0----0--------------------------------|
B|-----1---------1----1----3----3----1----1--------------------------------|
G|----0-0--0-0--2-2--2-2--2-2--2-2--2-2--2-2-------------------------------|
D|------------------2----0----0----3----3----------------------------------|
A|---3----3-2--0------------------(0)--------------------------------------|
E|-------------------------------------------------------------------------|    

Added On December 4th, 2013

SHARE

Comments

blog comments powered by Disqus

ADVERTISEMENT