TAB

            -------------------------------------------------------------------------------
			     Feathers - Coheed and Cambria
-------------------------------------------------------------------------------
Tabbed by: Kyle
Email: kgaff12@yahoo.com

Tuning:  Standard
Guitar 1:
e|-------------------------------------------------------------------------------|
B|-------------------------------------------------------------------------------|
G|-------------------------------------------------------------------------------|   (x2)
D|---14-14-14-13-13-13---14-14-14-13-13-13---14-14-----7-6-----------------------|
A|---14-14-14-14-14-14---14-14-14-14-14-14---14-14-----7-7 (same strum ----------|
E|---12-12-12-12-12-12---12-12-12-12-12-12---12-12-----5-5--pattern as b4) ------|
         .      .           .    .               .     .          .     .
Guitar 2:
e|----------------------------------------------------------------------|
B|----------------------------------------------------------------------|
G|---------11-------13-------16-------13-11-9-11------------------------|
D|---14-14----14-14----14-14---14-14------------------------------------|
A|----------------------------------------------------------------------|
E|----------------------------------------------------------------------|

e|-----------------------------------------------------------------------------|
B|-----------------------------------------------------------------------------|
G|--------9------11------14------11-9-8-9--------------------------------------|
D|--11-11--11-11---11-11---11-11-----------------------------------------------|
A|-----------------------------------------------------------------------------|
E|-----------------------------------------------------------------------------|

e|-----------------------------------------------------------------------------|
B|-----------------------------------------------------------------------------|
G|---------11-------13-------16-------13-11-9-11-------------------------------|
D|---14-14----14-14----14-14---14-14-------------------------------------------|
A|-----------------------------------------------------------------------------|
E|-----------------------------------------------------------------------------|

e|-----------------------------------------------------------------------------|
B|-----------------------------------------------------------------------------|
G|--------9------11------14----------------------------------------------------|
D|--11-11--11-11---11-11-----14p13h14p13h14------------------------------------|
A|-----------------------------------------------------------------------------|
E|-----------------------------------------------------------------------------|

Chorus:
e|----5--5-----7-----------------------------------------------------------------|
B|----5--5-----7-----------------------------------------------------------------|
G|----6--6--9--8-----------------------------------------------------------------|
D|----7--7--9--9-----------------------------------------------------------------| (x4)
A|----7--7--7--9-----------------------------------------------------------------|
E|----5--5-----7-----------------------------------------------------------------|

| /  slide up
| \  slide down
| h  hammer-on
| p  pull-off
| ~  vibrato
| +  harmonic
| x  Mute note
===============================================================================    

Added On December 16th, 2013

SHARE

Comments

blog comments powered by Disqus

VERSIONS

ADVERTISEMENT