Coheed And Cambria Tabs

The Camper Velourium Iii Al The Killer

1 versions

TAB

            ----------------------------------------------------------------------------
THE CAMPER VELOURIUM III: AL THE KILLER - Coheed and Cambria
----------------------------------------------------------------------------
Tabbed by: KeepingSecrets3
Email: cmasse2113@yahoo.com

Tuning: Standard (eBGDAE)

Intro Riff(Guitar 1)

e/-----------------------------------------------------/
B/-----------------------------------------------------/
G/-----------------------------------------------------/
D/-------4-5-0-------------------5-4-0-----------------/ 2x
A/-4-4-4-2/3p0-5-5-5-5-5-0-5-5-5-3\2p0-4-4-4-4-4-0-----/
E/-2-2-2-------3-3-3-3-3p0h3-3-3-------2-2-2-2-2p0-----/
                                      /----1st---------/

e/-----------/
B/-----------/
G/-----------/
D/-----------/
A/-4---4---4-/
E/-2---2---2-/
   .   .   .
 /----2nd----/

Verse 1 (Guitars 1 & 2)

Intro Riff 7x with 1st ending.
Intro Riff 1x with alt. ending:

("alt. ending")
e/-------------------/
B/-------------------/
G/-------------------/
D/---4-----5---3/5~--/
A/-----4-----5-------/
E/-2-----2-----------/


Pre-Chorus (Guitars 1 & 2)

e/---------------------------------------/
B/--5-5-55555-5-55555-5-555555566677-----/
G/--4-4-40404-4-40404-4-404044455566-----/
D/---------------------------------------/
A/---------------------------------------/
E/---------------------------------------/


Chorus (2x)

Part 1
(Guitar 1)
e/----------------------------------------------------/
B/----------------------------------------------------/
G/-44444444444444447777777777777777-------------------/
D/-444444444444444477777777777777775555555555555555---/
A/-222222222222222255555555555555555555555555555555---/
E/---------------------------------3333333333333333---/

(Guitar 2)
e/-------------------------------------------------------------------------/
B/15p12--------------------------------------------------------------------/
G/-----14p11-------------------14-16----14-16-14-16------------------------/
D/----------12-14p12--12-14-/16------/16---------------12-16-14-12---------/
A/------------------14-------------------------------14-----------16p14-12-/
E/-------------------------------------------------15----------------------/

Part 2
(Guitar 1 cont'd)
e/----------------------------------/
B/----------------------------------/
G/----------------------------------/
D/-----9-9-----9-9-----9-9-7\6-4----/
A/-9-9-7-7-9-9-7-7-7-7-7-7-5\4-2p0--/
E/-7-7-----7-7-----5-5--------------/

(Guitar 2 cont'd)
e/--------------------------------/
B/--------------------------------/
G/--------------------------------/
D/-------12h14-12-12--------------/
A/----12------------16-14-/16-12--/
E/-14-----------------------------/


Intro Riff 1x with 2nd ending (Guitar 1)


Verse 2 (Guitars 1 & 2)

Intro Riff 7x with 1st ending.
Intro Riff 1x with alt. ending.

Chorus (2x)


Bridge (Guitars 1 & 2) (2x)

[In the studio version, theres a faint lead guitar lick in the background, but when they 
the song live, both guitars play this.]

e/-----------------------------------------------------------------/
B/-----------------------------------------------------------------/
G/-----------------------------------------------------------------/
D/111111111111111111111111111111-9/111111111111111111111111111111--/
A/-9-9-9-9-9-9-9-9-9-9-9-9-9-9-9-7/-9-9-9-9-9-9-9-9-9-9-9-9-9-9-9p0/
E/-----------------------------------------------------------------/
                  ^^^Those are 11s, not 1s^^^

e/----------------------------------------------------------/
B/----------------------------------------------------------/
G/----------------------------------------------------------/
D/----------------------------------------------------------/
A/--7-7-7-7-7--7-7-7--7-7-7-7--7-7-7-7-7-7--7-7-7--7-7-7-7--/
E/--5-5-5-5-5--5-5-5--5-5-5-5--5-5-5-5-5-5--5-5-5--5-5-5-5--/


Intro Riff 4x with 2nd ending.
Intro Riff 1x with alt. ending.

Pre-chorus

Chorus (4x)

At the end, play Chorus Part 2 twice, then end with this:

e/-------/
B/-------/
G/--4~~--/
D/--4~~--/
A/--2~~--/
E/-------/

| /  slide up
| \  slide down
| h  hammer-on
| p  pull-off
| ~  vibrato
| +  harmonic
| x  Mute note


In the final chorus, the Guitar 2 part is tweaked a little bit, but it's not too 
from the original. Shouldn't be too hard to figure out.

Have fun with this one, I'm almost positive this is the most accurate way to play this song.    

Added On December 16th, 2013

SHARE

Comments

blog comments powered by Disqus

ADVERTISEMENT