Collective Soul Tabs

Hollywood

4 versions

TAB

            Collective Soul
Hollywood 

Tabbed by Vettesnfrets

Standard tuning
go to their website and they have it streamed http://www.collectivesoul.com/media/?Loc=4

 

The Chords are C F G  for both verse and chorus  

Intro picking part
e|-----------------------------------------------------|
B|-----------------------------------------------------|
G|------------------17-------17------------------------|
D|---------14---17-------17--------17--17---15---14----|
A|-----15----------------------------------------------|
E|-----------------------------------------------------|


Play this over the chorus
e|-----------------------------------------------------|
B|-----------------------------------------------------|
G|-------------------17------17-----19-19-19--17-17-17-|
D|----------14---17------17----------------------------|
A|------15---------------------------------------------|
E|-----------------------------------------------------|

verse

    C
C
e |---|---|-x-|---|---|
B |-x-|---|---|---|---|
G |---|---|---|---|---|
D |---|-x-|---|---|---|
A |---|---|-x-|---|---|
E |---|---|---|---|---|
G
G
e |---|---|-x-|---|---|
B |---|---|---|---|---|
G |---|---|---|---|---|
D |---|---|---|---|---|
A |---|-x-|---|---|---|
E |---|---|-x-|---|---|
F
F
e |-x-|---|---|---|---|
B |-x-|---|---|---|---|
G |---|-x-|---|---|---|
D |---|---|-x-|---|---|
A |---|---|-x-|---|---|
E |-x-|---|---|---|---|
C
C
e |---|---|-x-|---|---|
B |-x-|---|---|---|---|
G |---|---|---|---|---|
D |---|-x-|---|---|---|
A |---|---|-x-|---|---|
E |---|---|---|---|---|
G
G
e |---|---|-x-|---|---|
B |---|---|---|---|---|
G |---|---|---|---|---|
D |---|---|---|---|---|
A |---|-x-|---|---|---|
E |---|---|-x-|---|---|
F
F
e |-x-|---|---|---|---|
B |-x-|---|---|---|---|
G |---|-x-|---|---|---|
D |---|---|-x-|---|---|
A |---|---|-x-|---|---|
E |-x-|---|---|---|---|
Oh summer it never leaves your face C
C
e |---|---|-x-|---|---|
B |-x-|---|---|---|---|
G |---|---|---|---|---|
D |---|-x-|---|---|---|
A |---|---|-x-|---|---|
E |---|---|---|---|---|
G
G
e |---|---|-x-|---|---|
B |---|---|---|---|---|
G |---|---|---|---|---|
D |---|---|---|---|---|
A |---|-x-|---|---|---|
E |---|---|-x-|---|---|
F
F
e |-x-|---|---|---|---|
B |-x-|---|---|---|---|
G |---|-x-|---|---|---|
D |---|---|-x-|---|---|
A |---|---|-x-|---|---|
E |-x-|---|---|---|---|
C
C
e |---|---|-x-|---|---|
B |-x-|---|---|---|---|
G |---|---|---|---|---|
D |---|-x-|---|---|---|
A |---|---|-x-|---|---|
E |---|---|---|---|---|
G
G
e |---|---|-x-|---|---|
B |---|---|---|---|---|
G |---|---|---|---|---|
D |---|---|---|---|---|
A |---|-x-|---|---|---|
E |---|---|-x-|---|---|
F
F
e |-x-|---|---|---|---|
B |-x-|---|---|---|---|
G |---|-x-|---|---|---|
D |---|---|-x-|---|---|
A |---|---|-x-|---|---|
E |-x-|---|---|---|---|
You got the sunshine bright-eyed California cotton candy taste chorus C
C
e |---|---|-x-|---|---|
B |-x-|---|---|---|---|
G |---|---|---|---|---|
D |---|-x-|---|---|---|
A |---|---|-x-|---|---|
E |---|---|---|---|---|
Yeah Hollywood G
G
e |---|---|-x-|---|---|
B |---|---|---|---|---|
G |---|---|---|---|---|
D |---|---|---|---|---|
A |---|-x-|---|---|---|
E |---|---|-x-|---|---|
F
F
e |-x-|---|---|---|---|
B |-x-|---|---|---|---|
G |---|-x-|---|---|---|
D |---|---|-x-|---|---|
A |---|---|-x-|---|---|
E |-x-|---|---|---|---|
C
C
e |---|---|-x-|---|---|
B |-x-|---|---|---|---|
G |---|---|---|---|---|
D |---|-x-|---|---|---|
A |---|---|-x-|---|---|
E |---|---|---|---|---|
G
G
e |---|---|-x-|---|---|
B |---|---|---|---|---|
G |---|---|---|---|---|
D |---|---|---|---|---|
A |---|-x-|---|---|---|
E |---|---|-x-|---|---|
F
F
e |-x-|---|---|---|---|
B |-x-|---|---|---|---|
G |---|-x-|---|---|---|
D |---|---|-x-|---|---|
A |---|---|-x-|---|---|
E |-x-|---|---|---|---|
You know I love you more than one night should C
C
e |---|---|-x-|---|---|
B |-x-|---|---|---|---|
G |---|---|---|---|---|
D |---|-x-|---|---|---|
A |---|---|-x-|---|---|
E |---|---|---|---|---|
Yeah Hollywood G
G
e |---|---|-x-|---|---|
B |---|---|---|---|---|
G |---|---|---|---|---|
D |---|---|---|---|---|
A |---|-x-|---|---|---|
E |---|---|-x-|---|---|
F
F
e |-x-|---|---|---|---|
B |-x-|---|---|---|---|
G |---|-x-|---|---|---|
D |---|---|-x-|---|---|
A |---|---|-x-|---|---|
E |-x-|---|---|---|---|
C
C
e |---|---|-x-|---|---|
B |-x-|---|---|---|---|
G |---|---|---|---|---|
D |---|-x-|---|---|---|
A |---|---|-x-|---|---|
E |---|---|---|---|---|
G
G
e |---|---|-x-|---|---|
B |---|---|---|---|---|
G |---|---|---|---|---|
D |---|---|---|---|---|
A |---|-x-|---|---|---|
E |---|---|-x-|---|---|
F
F
e |-x-|---|---|---|---|
B |-x-|---|---|---|---|
G |---|-x-|---|---|---|
D |---|---|-x-|---|---|
A |---|---|-x-|---|---|
E |-x-|---|---|---|---|
Oh Kiss me kiss me good Oh Pretty pretty stars Love has sparkled for you You got me headlocked laying back.. ?????Â…attitude Yeah Hollywood You know I love you more than one night should Yeah Hollywood Oh Kiss me kiss me good Yeah Hollywood You know I love you more than one night should Yeah Hollywood Oh Kiss me kiss me good INTERLUDE This is the interlude riff e|-----------------------------------------------------| B|-----------------------------------------------------| G|-----------------------------------------------------| D|-----------------------------------------------------| A|----3---------------2--3--2--------------------------| E|-------0--1--5--3------------5--3--------------------| e|-----------------------------------------------------| B|-----------------------------------------------------| G|-----------------------------------------------------| D|------------------------------8--7-------------------| A|----3---------------2--3--2--------------------------| E|-------0--1--5--3------------------------------------| e|-----------------------------------------------------| B|-----------------------------------------------------| G|-----------------------------------------------------| D|-----------------------------------------------------| A|----3---------------2--3--2--------------------------| E|-------0--1--5--3------------5--3--------------------| e|-----------------------------------------------------| B|-----------------------------------------------------| G|-----------------------------------------------------| D|------------------------------8--7-------------------| A|----3---------------2--3--2--------------------------| E|-------0--1--5--3------------------------------------| Yeah Hollywood You know I love you more than one night should Yeah Hollywood Oh Kiss me kiss me good Yeah Hollywood You know I love you more than one night should Yeah Hollywood Oh Kiss me kiss me good Oh Kiss me kiss me good Oh Kiss me kiss me good Oh Kiss me kiss me good Oh Kiss me kiss me good Oh Kiss me kiss me good Yeah Hollywood Yeah Hollywood

Added On December 16th, 2013

SHARE

Comments

blog comments powered by Disqus

VERSIONS

ADVERTISEMENT