Converge Tabs

Pheonix In Flight

1 versions

TAB

            Artist: Converge
Song: Pheonix In Flight
Album: Jane Doe
Tuning: Drop C

Listen to the song to find out how many
times you play each part. There's a bunch
of feedback and harmonics thrown in during
the song on numerous guitars. You're going
to have to work it out to make it sound
perfect this tab is just the main parts.


Riff One
D-------------------------------------|
A-------------------------------------|
F-------------------------------------|
C-7~~-7/-3~~-3-h5-0~~-5/-3-3~~-3/-7~~-|
G-7~~-7/-3~~-3-h5-0~~-5/-3-3~~-3/-7~~-|
C-7~~-7/-3~~-3-h5-0~~-5/-3-3~~-3/-7~~-|


Riff Two (Guitar One)
D-----|-----------------------------------|
A-----|-----1------1---1------------------|
F-----|---2---2--------------2-----2---2/-|
C-3/--|-0--------0---0-----3---3----------|
G-3/--|-----------------------------------|
C-3/--|------------------3-------3--------|

Riff Two (Guitar Two)
D-----|---------------------|
A-----|---------------------|
F-----|---------------------|
C-3/--|---------------------|
G-3/--|---------------------|
C-3/--|-000-0-0----000-0-0--|


Riff Three (Both Guitars)
D--------------------------------|----|
A--------------------------------|-3--|
F--------------------------------|-3--|
C--------------------------------|-2--|
G--------------------------------|-0--|
C-00000-00000-00000-00000-00000--|-0--|    

Added On December 16th, 2013

SHARE

Comments

blog comments powered by Disqus

ADVERTISEMENT