Crowbar Tabs

The Lasting Dose

1 versions

TAB

            Band:  CROWBAR
Album: Sonic Excess in its Purest Form
Song:  The Lasting Dose

Transcribed by: general maxx

Tuning: 2.5 steps down (B)

Keys:
 / \ - slide
  b  - bend


INTRO:
|---------------------------------------|
|---------------------------------------|
|---------------------------------------|
|-/10-9~----\----9-9/10~----------------|
|-------------/7----------7-7/8~-----\--|
|---------------------------------------| 4x


FILL:
|---------|
|---------|
|---------|
|---------|
|---------|
|-/16b--\-|


CHORUS:
|-------------------------------------------|
|-------------------------------------------|
|-------------------------------------------|
|-7--7--5-7-5-4-5-4-2--2-3--3--3-5-7--5-10--|
|-7--7--5-7-3-2-3-2-2--2-3--3--3-5-5--3--8--|
|-5--5--3-5---------0--0-1--1--1-3-5--3--8--| 4x


INTRO - 2x


FILL


CHORUS - 4x


RIFF:
|---------------------------------|
|---------------------------------|
|---------------------------------|
|---------------------------------|
|---------------------------------|
|-5-0-5-/10~--8-10-8-0-3--3-/12~--| 8x


CHORUS - 4x


RIFF - 12x    

Added On December 16th, 2013

SHARE

Comments

blog comments powered by Disqus

ADVERTISEMENT