Damien Rice Tabs

Accidental Babies

4 versions

TAB

            Accidental Babies Tab by Damien Rice


Damien Rice - Accidental Babies
tabbed by wego

Standard Tuning - No Capo

Intro & Chorus
--------------
   Dm		     G		     C		     Am		       F      
e|-0-------1---2h3--------------------------------------------------------------------------------------|
B|-|---3-------------0---0---1---3---1-----1-1-----1-1-----0-1-----0-1-1-------1-----0-1-0---0--1--3----|
G|-|-2---2---2-----2-|---------------|---0---|---0---|---2-----0-2-----|---2---|---2-----|--------------|
D|-0-----------------|-0---0---0---0-|-2-----|-2-----|-2---------------|-3---3-|-3-------|-0---0--0--(0)|
A|-------------------|---------------3-------2-------0-----------------|-------|---------|--------------|
E|-------------------3-------------------------------------------------1-------1---------3--------------|

Verse
-----
   F		   G		   C		   Am		     F		
e|-1-----------1--------------------------------------------------------------------------------------|
B|-|-------1-------0---0---1---3---1-----1-1-----1-1-----0-1-----0-1-1-------1-----0-1-0---0--1--3----|
G|-|---2---------2-|---------------|---0---|---0---|---2-----0-2-----|---2---|---2-----|--------------|
D|-|-3---3---3-----|-0---0---0---0-|-2-----|-2-----|-2---------------|-3---3-|-3-------|-0---0--0--(0)|
A|-|---------------|---------------3-------2-------0-----------------|-------|---------|--------------|
E|-1---------------3-------------------------------------------------1-------1---------3--------------|    

Added On December 4th, 2013

SHARE

Comments

blog comments powered by Disqus

VERSIONS

ADVERTISEMENT