Daughtry Tabs

What I Want

2 versions

TAB

            -------------------------------------------------------------------------------
			     What I Want - Daughtry
-------------------------------------------------------------------------------
Tabbed by: kevmania69
Email: kevmania69@yahoo.com

Tuning: C#-G#-C#-F#-A#-D#

e|-----------------------------------|
B|-----------------------------------|  This comes in after the drums
G|-----------------------------------|
D|--5-7-0-5-7-0-3-3-3-3-5-5-5-5—-0---|
A|--5-7-0-5-7-0-3-3-3-3-5-5-5-5--0---|
D|--5-7-0-5-7-0-3-3-3-3-5-5-5-5--0---|

e|---------------------------------------------|
B|---------------------------------------------| Little main lick that is played
G|-----------10\9------------------------------| throughout the song.
D|--12-10-12------12-10-12----10-12---10-12----| Play it twice here.
A|-------------------------12------------------|
E|---------------------------------------------|

e|-----------------------------------------------------------|  VERSES
B|-----------------------------------------------------------|
G|-----------------------------------------------------------|
D|-0-0-0-0-0-0-0-0-5-7-0-5-7-0-3--3-3-3-3-3-3-3--5-5-5-5-0---|
A|-0-0-0-0-0-0-0-0-5-7-0-5-7-0-3--3-3-3-3-3-3-3--5-5-5-5-0---|
E|-0-0-0-0-0-0-0-0-5-7-0-5-7-0-3--3-3-3-3-3-3-3--5-5-5-5-0---|

There are various licks played throughout the verses - basically just Slash winging it. 
can imitate it effortlessly.

e|--------------------------------------|
B|--------------------------------------|   CHORUS
G|-7-7-7-7-5-5-5-5----------------------|   Play twice first time
D|-7-7-7-7-5-5-5-5-5-5-5-5-5-5-5-3-0----|   Followed by main lick
A|-5-5-5-5-3-3-3-3-5-5-5-5-5-5-5-3-0----|
E|-----------------5-5-5-5-5-5-5-3-0----|

e|--------------------------------------------------------------------|
B|--------------------------------------------------------------------| Bridge before solo
G|--5-5-5-5-5-5-5-5-----------------3-3-3-3-3-3-3-3-2-2-2-2-2-2-2-2---|
D|--5-5-5-5-5-5-5-5-5-5-5-5-5-5-5-5-3-3-3-3-3-3-3-3-2-2-2-2-2-2-2-2---|
A|--3-3-3-3-3-3-3-3-5-5-5-5-5-5-5-5-1-1-1-1-1-1-1-1-0-0-0-0-0-0-0-0---|
E|------------------5-5-5-5-5-5-5-5-----------------------------------|

SOLO (I know it, but will tab it later. Easy very basic solo.)

CHORUS

MAIN LICK

END

Nothing difficult to this song. If you really need the solo email me.

| /  slide up
| \  slide down
| h  hammer-on
| p  pull-off
| ~  vibrato
| +  harmonic
| x  Mute note
============================================================    

Added On December 16th, 2013

SHARE

Comments

blog comments powered by Disqus

VERSIONS

ADVERTISEMENT