Dave Matthews Band Tabs

Steady As We Go

2 versions

TAB

            Dave Matthews Band - Steady as we go
tabbed by Phillip Bass

Capo 6th fret
Standard tuning


lick #1 (first thing in the song)

e|--2--0--0--0--|
B|--3--3--2--0--|
G|--2--2--2--2--|
D|--------------|
A|--------------|
E|--------------|


lick #2

|--------------|
|--------------|
|--1--2--4--1--|
|--2--2--2--2--|
|--2--2--2--2--|
|--------------|


lick #3
|----------------|
|--1--1--1--1-1--|
|--0--0--0--0-0--|
|--3--2--0--0h2--|
|--3--3--3--3-3--|
|----------------|


Intro -

lick 1, E


Verses - (i walk halfway around the world.. etc)

G, D, lick 1, E


Chorus - (troubles they may come and go..)

lick 2, G, lick 1, E


Bridge - (when the storm comes..)

F, C, G, lick 3


Outro/ending - same as chorus    

Added On December 16th, 2013

SHARE

Comments

blog comments powered by Disqus

VERSIONS

ADVERTISEMENT