Decemberists Tabs

Margaret In Captivity

1 versions

TAB

            Artist: The Decemberists
Song: Margaret In Captivity
Album: The Hazards of Love
Tabbed by: Don Tago
Email: recebedou@yahoo.com

Tuning: Drop D - DADGBe

Chords Used:
   DADGBe
F5:333---
G5:555---

Intro and verse tabs:

Riff 1:
e|----------------------------------|
B|-----5-------3-------1-------0----|
G|---5---5---4---4---2---1---0---0--| repeat 2x, then Riff 2 x1-->
D|----------------------------------|
A|----------------------------------|
D|-0-------0-------0-------0--------|

Riff 2:
e|------------------------------------------------------------|
B|-----5-------3-------1-------0---------------0-----------3--|
G|---5---5---4---4---2---1---0---0-----2-----0---0---2/4------| 
D|-----------------------------------3---3-----------3/5-0----|
A|------------------------------------------------------------|
D|-0-------0-------0-------0-------0-------0-------0----------|

Verse 1: (use verse tabs)
I have snipped your wingspan, my precious captive swan 
Here all clipped of kickstand, your spirit won't last long 
Don't you lift a finger, don't you snap and jaw 
Limber limbs akimbo, rest till rubbing raw 

Chorus: 
F5                                   G5 [with Riff 3]
Oh my own true love! Oh my own true love!
F5                                   G5 [with Riff 2] 
Can you hear me, love? Can you hear me, love? 

==========================
Riff 3:
e|----------------------|
B|---5-5-5-3-3-3-1-1-1--|
G|---5-5-5-4-4-4-2-2-2--|
D|----------------------|
A|----------------------|
E|----------------------|
==========================

Verse 2: (use verse tabs)
Don't hold out for rescue, none can hear your call 
Till I have wrest and wrecked you, behind these fortress walls 

Chorus: 
F5                                   G5 [with Riff 3]
Oh my own true love! Oh my own true love! 
F5                                      G5 [with Riff 3]
Can you hear me, love? Can you hear me, love?

Outro:
F5 – G5[with Riff 3] x3 to fade out    

Added On December 16th, 2013

SHARE

Comments

blog comments powered by Disqus

ADVERTISEMENT