Demi Lovato Tabs

La La Land

4 versions

TAB

            Demi Lovato - La La Land
------------------------

This song (and tab) was requested on YouTube a lot, so I made an easy version of it.
It's without the solos but with the bass part in the second verse which is pretty cool
and comfortable to play. The rest is very easy too, it's like the same thing the whole
time. The timestamps refer to the album version. Have fun ;)



### INTRO ### 00:00 ###
e|--v----v----v----v--^---|     /////////////////////////////
B|------------------------|     / parts with this strumming /
G|--11---11---11---11-11--| 2x  / pattern will be marked    /
D|--11---11---11---11-11--|     / as follows: --vvvv^--     /
A|--9----9----9----9--9---|     /////////////////////////////
E|------------------------|


### VERSE 1 ### 00:03 ###
e|--v----v----v----v--^---|    |--vvvv^--|--vvvv^--|--vvvv^---|----------|
B|------------------------|    |---------|---------|----------|----------|
G|--11---11---11---11-11--| 4x |--7------|--9------|--11------|--11------|
D|--11---11---11---11-11--|    |--7------|--9------|--11------|--11------|
A|--9----9----9----9--9---|    |--5------|--7------|--9-------|--9-------|
E|------------------------|    |---------|---------|----------|----------|

e|--v----v----v----v--^---|    |--vvvv^--|--vvvv^--|--vvvv^---|--vvvv^---|
B|------------------------|    |---------|---------|----------|----------|
G|--11---11---11---11-11--| 4x |--7------|--9------|--11------|--11------|
D|--11---11---11---11-11--|    |--7------|--9------|--11------|--11------|
A|--9----9----9----9--9---|    |--5------|--7------|--9-------|--9-------|
E|------------------------|    |---------|---------|----------|----------|


### CHORUS ### 00:25 ###
e|--vvvv^--|--vvvv^--|--vvvv^--|--vvvv^--|---------|----------|
B|---------|---------|---------|---------|---------|--6-------|
G|---------|---------|---------|---------|--7------|--7-------| 2x
D|--7------|--6------|--4------|--2------|--7------|--7-------|
A|--7------|--6------|--4------|--2------|--5------|--5-------|
E|--5------|--4------|--2------|--0------|---------|----------|



### INTRO ### 00:42 ### (2x)



### VERSE 2 ### 00:48 ###
e|---------|---------|---------|---------|---------|---------|---------|---------|
B|---------|---------|---------|---------|---------|---------|---------|---------|
G|-------2-|---------|-------2-|---------|---------|---------|-------2-|---------|
D|-4-------|-4-------|-4-------|-4-------|---------|---------|-4-------|-4-------|
A|---3-4---|---3-4-0-|---3-4---|---3-4-0-|-5-------|-7-------|---3-4---|---3-4-0-|
E|---------|---------|---------|---------|---5-2-5-|---7-4-0-|---------|---------|

e|---------|---------|---------|---------|---------|---------|---------|---------|
B|---------|---------|---------|---------|---------|---------|---------|---------|
G|-------2-|---------|-------2-|---------|---------|---------|-------2-|---------|
D|-4-------|-4-------|-4-------|-4\------|---------|---------|-4-------|-4-------|
A|---3-4---|---3-4-0-|---3-4---|---------|-5-------|-7-------|---3-4---|---3-4-0-|
E|---------|---------|---------|---------|---5-2-5-|---7-4-0-|---------|---------|



### CHORUS ### 01:10 ###



### BRIDGE & SOLO BACKING ### 01:27 ###
e|---------|---------|---------|---------|---------|----------|
B|---------|---------|---------|---------|---------|--6-------|
G|---------|---------|---------|---------|--7------|--7-------| 3x
D|--7------|--6------|--4------|--2------|--7------|--7-------|
A|--7------|--6------|--4------|--2------|--5------|--5-------|
E|--5------|--4------|--2------|--0------|---------|----------|



### CHORUS ### 01:53 ###



### POST-CHORUS ### 02:10 ###
e|---------|---------|---------|---------|
B|---------|---------|---------|--6------|
G|---------|---------|--7------|--7------| 2x
D|--4------|--2------|--7------|--7------|
A|--4------|--2------|--5------|--5------|
E|--2------|--0------|---------|---------|



### BRIDGE & SOLO BACKING ### 02:25 ### (1,6667x)    

Added On December 16th, 2013

SHARE

Comments

blog comments powered by Disqus

VERSIONS

ADVERTISEMENT