TAB

            ----------------------------------------------------------------------------
			     Macro - Depeche Mode
----------------------------------------------------------------------------
Tabbed by: Bee-Ay
Email: Leviathan_ben@hotmail.com

Tuning: Standard


Note: This song has several guitar dubs.

Guitar jumps in for chorus':
e|---8----------------------|
B|-----10-------------------|
G|*---------9---------9-10-*|
D|*------------------------*|
A|----------------7/8-------|
E|--------------------------|

Near end, with the heavy drums, this riff jumps in:
e|--------------------------------|
B|--------------------------------|
G|-------------------------------*|
D|-------------------------------*|
A|-3--3/5--3~---3/5-5-5--5/6-6-6--|
E|--------------------------------|


In outro, this is played with the riff above:
e|-------5----------7-|
B|-----5----------5---|
G|*--7----------7----*|
D|*------------------*|
A|--------------------|
E|--------------------|

Enjoy :)    

Added On December 16th, 2013

SHARE

Comments

blog comments powered by Disqus

ADVERTISEMENT